Pantera - Goddamn Electric Chords & Tabs

 

Goddamn Electric Chords & Tabs

Pantera Chords & Tabs

Version: 1 Type: Tab 0 ratings
1 star 2 stars 3 stars 4 stars 5 stars
comments

Goddamn Electric Tab

   
Author/Artist: Pantera
Title: Goddamn Electric
Album: Reinventing the Stell
Transcribed by: Ron Murphy
Email: ronmurphy@hotmail.com

This is my best interpretation of this song 
I think it sounds pretty accurate though
Tell me what you think 
Im also not quite sure what the tuning is I play it
in regular tuning

------------------------------------------------------------------------------
------------------------------------------------------------------------------
------------------------------------------------------------------------------
--4-4-4-4-------4-4-4-4-------4\3--4\3-4\3------------------------------------
--4-4-4-4-------4-4-4-4-------4\3--4\3-4\3------------------------------------
----------xxxxx---------xxxxx-------------------------------------------------
 opening riff                                                                 

------------------------|-----------------------------------------------------
------------------------|-----------------------------------------------------
------------------------|-----------------------------------------------------
------------------------|-----------------------------------------------------
-----------------5-5-5--|-5-5-5-5-5-5-5-5---6-6-6-6--4-4-4-4------------------
-0-/12-0-0-/12-0-4-4-4--|-4-4-4-4-4-4-4-4---5-5-5-5--3-3-3-3------------------
 verse riff               chorus                                              

------------------------------------------|-----------------------------------
------------------------------------------|-----------------------------------
------------------------------------------|-----------------------------------
------------------------------------------|-------------2---------------------
------------------------------------------|-7\6-6-6\5-5-2---------------------
-12b-0-12b-0-12b-0-12b-10b-0-0-0-0-0-0-0--|-5\4-4-4\3-3-0---------------------
                                                                              
==============================================================================

From: Jake Milliron [mailto:jerichoholic@buckeyeinet.com]
Sent: Wednesday, April 26, 2000 9:58 PM
To: webmaster@atmetal.com
Subject: Reinventin The Steel Guitar Tabs
[ Tab from: http://www.guitartabs.cc/tabs/p/pantera/goddamn_electric_tab.html ]
Goddamn Electric  bridge                                                                    
P.M.------------------------------------------------
e---------------------------------------------------
b--------------------------------------------------
g--------------------------------------------------
d--------------------------------------------------
a--7--7--7--7--7--7--7--7--7--8--8--8--8--6--6--6--6-
e--0--0--0--0--0--0--0--0--0--0--0--0--0--0--0--0--0-

###############################################################################

From: j@irelands-web.ie [mailto:j@irelands-web.ie]
Sent: Saturday, June 24, 2000 7:47 PM
To: webmaster@atmetal.com
Subject: addicted to metal

the chorus for Godamn Electric the part where it goes 'don't waste your
time'.......    it's an octave power chord  on the A and G strings the 8th
and 10th fret.you muffle the D string with your finger. you then slide back
towards the nut of the guitar 4 times and end it on the 6th and 8th fret
this time.

e.............................................................................
B.............................................................................
G.../.....10..................................................................
D......x......................................................................
A./..8........................................................................
e.............................................................................


like this. listen to cd to hear the slides.start with this octave and end
on this one.give it some vibrato

e..............................................................................
B..............................................................................
G.........8....................................................................
D......x.......................................................................
A...6..........................................................................
e..............................................................................

===============================================================================

From: Akilldema@aol.com [mailto:Akilldema@aol.com]
Sent: Thursday, May 25, 2000 6:06 PM
To: webmaster@atmetal.com
Subject: Goddamn Electric


The "Don't waste your time" part is on the low E flat string and it's 
/ =vibrato
6]----12/--0--12/--0--12/--0--12/--9/-----[
Comments