Pantera - Five Minutes Alone Chords & Tabs

 

Five Minutes Alone Chords & Tabs

Pantera Chords & Tabs

Version: 2 Type: Tab 0 ratings
1 star 2 stars 3 stars 4 stars 5 stars
comments

Five Minutes Alone Tab

Artist: Pantera
Song: 5 Minutes Alone
Submitted By: alien_anton87
Tuned to Drop "D"


Chorus:


-----------|---------------|----------------------------|--------------|
-----------|---------------|----------------------------|--------------|
-----------|---------------|----------------------------|--------------|
-----------|---------------|----------------------------|--------------|
---3--5--0-|--3--5--0--xxx-|--3--5--0-------------x-x-x-|--------------|
---3--5--0-|--3--5--0--xxx-|--3--5--0--s-l-i-d-e--x-x-x-|--------------|
[ Tab from: http://www.guitartabs.cc/tabs/p/pantera/five_minutes_alone_tab_ver_2.html ]
Solo:                             Outro:


------------------------------|--------------------------------------|
------------------------------|--------------------------------------|
---------------------5~-------|--------------------------------------|
-----------3------------------|--------------------------------------|
-----3--5-----5---------------|--------------------------------------|
--0--------------5------------|---------7~-----------2~--------1~----|

If u have any questions or comments e-amil me at alien_anton87@hotmail.com
ENJOY!!!!
Comments