Pantera - Domination Chords & Tabs

 

Domination Chords & Tabs

Pantera Chords & Tabs

Version: 2 Type: Tab 0 ratings
1 star 2 stars 3 stars 4 stars 5 stars
comments

Domination Tab

   
**I KNOW IT'S ONLY THE SOLO BUT THIS SOLO REALLY DESERVES IT's OWN TAB
**THIS IS THE ONLY CORRECT TAB OF THIS VERY HARD SOLO
**IT IS ALSO VERY EASY TO READ AND LEARN

Band: PANTERA
Song: Domination (solo) written by Pantera copyright Atlantic Records
Albm: Cowboys From Hell 

   All the hard parts 100% correct and how to learn it.
   Tabbed by Robert Robertsen - insane Pantera fan
   
   You need to have listened 
   to the track alot so that you know the rythm changes

   I have come across seven other tabs of Domination. None were correct.

  -Just listen to the track, 

   and you'll see that this is all you need to know.
   
   This is the only Domination solo tab that is absolutely correct;
   note-wise - and i have scoured the net.

   Any questions? Please do not hesitate to mail me : l1nkpost@hotmail.com

 
   "b" bend 
   "r" release bend
   "d" drop
   "~" vibrate
   "." mute by releasing finger
_____________________________________________________________________________

1 13-12-13-16-13-12-13-12----12-13-12|13-12----12|
2 ------------------------15---------|------15---|
3 -----------------------------------|-----------|
4 -----------------------------------|-----------|
5 -----------------------------------|-----------|
6 -----------------------------------|-----------|

1 -----------------------------------------------------|
2 15-13-12----13-12----12-------|----------------------|
3 ---------14-------14----13-~~~|-9br~--------9-10-----|
4 ------------------------------|--------9-10----------|
5 ------------------------------|------------------6-~-|
6 ------------------------------|----------------------|


The incredibly fast part :

1 --------------------------|--------------------------|
2 --------------------------|--------------------------|
3 --------------------------|------------------12-15---| 
4 ------------------12-15---|---------12-15-18-------18|
5 ---------12-15-18-------18|12-15-18------------------|
6 12-15-18------------------|--------------------------|

1 --------------------------|--------------------------|
2 ------------------12-15-18|---------12-15-18-15-12-15|
3 ---------12-15-18---------|12-15-18------------------|
4 12-15-18------------------|--------------------------|
5 --------------------------|--------------------------|
6 --------------------------|--------------------------|



1 12-15-18-15-12-15-12-15-19-15-12-15|22-22-22-22-18---|
2 -----------------------------------|---------------20|
3 -----------------------------------|-----------------|
4 -----------------------------------|------(x 4)------|
5 -----------------------------------|-----------------|
6 -----------------------------------|-----------------|

1 21-21-21-21-18---|22b(24)-~~~-22b(24)-~-r(22)-~~~|
2 ---------------20|22b(24)-~~~-22b(24)-~-r(22)-~~~|
3 -----------------|-------------------------------|
4 ------(x 4)------|-------------------------------|
5 -----------------|-------------------------------|
6 -----------------|-------------------------------|

The not so fast part:

1 19-20-17-19----17------------------------------------|
2 ------------20----19-20-17-----19-20-17-19-20-17b(21)|
3 -----------------------------------------------------|
4 -----------------------------------------------------|
5 -----------------------------------------------------|
6 -----------------------------------------------------|

1 -17.16.15.14.-15-14-13-14-13-12----12-15b(17)-r|
2 --------------------------------15-------------|
3 -----------------------------------------------|
4 -----------------------------------------------|
5 -----------------------------------------------|
6 -----------------------------------------------|
[ Tab from: http://www.guitartabs.cc/tabs/p/pantera/domination_tab_ver_2.html ]
1 --------------------------------------------------------------|
2 17-19-~~~~~-d-------------------------------------------------| 
3 --------------------------------------------------------------|
4 --------------------------------------------------------------|
5 --------------------------------------------------------------|
6 --------------(long bend, w/bar)-5b(20)-~-14b(0.5)-~-7b(8)-~-r|

The insanely fast part :

1 ---------------|---------------|-----------------|
2 ---------------|---------------|-----------------|
3 ---------------|---------------|-----------------|
4 ---------------|---------------|-----------------|
5 ---------------|9-11-12-9-11-13|10-12-14-10-12-14|
6 9-11-12-9-11-12|---------------|-----------------|		 

1 -----------------|-----------------|-----------------|
2 -----------------|-----------------|-----------------| 
3 -----------------|11-12-14-11-12-15|12-14-15-12-14-15|
4 10-12-14-10-12-14|-----------------|-----------------|
5 -----------------|-----------------|-----------------|
6 -----------------|-----------------|-----------------|

1 -----------------|-----------------|-----------------|
2 12-14-15-12-14-16|14-15-17-14-15-18|15-17-19-15-17-19|
3 -----------------|-----------------|-----------------|
4 -----------------|-----------------|-----------------|
5 -----------------|-----------------|-----------------|
6 -----------------|-----------------|-----------------|

1 15-17-19-15-17-19|17-19-20-17-19-21|19-20-22-19-20-22|
2 -----------------|-----------------|-----------------|
3 -----------------|-----------------|-----------------|
4 -----------------|-----------------|-----------------|
5 -----------------|-----------------|-----------------|
6 -----------------|-----------------|-----------------|

1 22b(25)-~~~~~-20b(21)-r-d|
2 --------------19b(22)-r-d|
3 -------------------------|
4 -------------------------|
5 -------------------------|
6 -------------------------|

Outtro solo (album):

Guitar 1:
                                               
1 17-13-12-13|16-13-12-13|17-13-12-13|
2 -----------|-----------|-----------|
3 ---(x 8)---|---(x 8)---|---(x 8)---|
4 -----------|-----------|-----------|
5 -----------|-----------|-----------|
6 -----------|-----------|-----------|
 \_________(x 3)________/             

1 16-16-13-12|17-17-14-13|18-18-15-14|19-19-16-15|20-20-17-16|21-21-18-17|22d|
2 -----------|-----------|-----------|-----------|-----------|-----------|---|
3 -----------|-----------|-----------|-----------|-----------|-----------|---|
4 -----------|-----------|-----------|-----------|-----------|-----------|---|
5 -----------|-----------|-----------|-----------|-----------|-----------|---|
6 -----------|-----------|-----------|-----------|-----------|-----------|---|
 
Guitar 2:
    
1 20-16-15-16|19-16-15-16|20-16-15-16|
2 -----------|-----------|-----------|
3 ---(x 8)---|---(x 8)---|---(x 8)---|
4 -----------|-----------|-----------|
5 -----------|-----------|-----------|
6 -----------|-----------|-----------|
 \_________(x 3)________/


1 19-19-16-15|18-18-15-14|17-17-14-13|16-16-13-12|15-15-12-11|14-14-11-10|13d|
2 -----------|-----------|-----------|-----------|-----------|-----------|---|
3 -----------|-----------|-----------|-----------|-----------|-----------|---|
4 -----------|-----------|-----------|-----------|-----------|-----------|---|
5 -----------|-----------|-----------|-----------|-----------|-----------|---|
6 -----------|-----------|-----------|-----------|-----------|-----------|---|

Outtro solo (live):

1 17-13-12-13|16-13-12 13|17-13-12-13|
2 -----------|-----------|-----------|
3 ---(x 8)---|---(x 8)---|---(x 8)---|
4 -----------|-----------|-----------|
5 -----------|-----------|-----------|
6 -----------|-----------|-----------|

1 16-16-13-12|17-17-14-13|18-18-15-14|19-19-16-15|20b(21)|
2 -----------|-----------|-----------|-----------|19b(21)|
3 -----------|-----------|-----------|-----------|-------|
4 -----------|-----------|-----------|-----------|-------|
5 -----------|-----------|-----------|-----------|-------|
6 -----------|-----------|-----------|-----------|-------|
Comments