Pantera - Cowboys From Hell Chords & Tabs

 

Cowboys From Hell Chords & Tabs

Pantera Chords & Tabs

Version: 4 Type: Tab 2 ratings
1 star 2 stars 3 stars 4 stars 5 stars
comments

Cowboys From Hell Tab

   
Band: Pantera
Song: Cowboys from hell

got this straight from my Guitar one Magazine. Have fun yo!!!

Key:
h=hammer
P.M.=palm muting
=slide
p=pull off

FIGURE 1- intro riff (0:08)
[ Tab from: http://www.guitartabs.cc/tabs/p/pantera/cowboys_from_hell_tab_ver_4.html ]
Ele. Gtr. (w/dist.)
4/4 time
         /light P.M.___________________________________    (play 3x's)    /light P.M.___________________
     ||---------------------------------------------------------------|| ---------------------------------------------------------|
     ||o-------------------------------------------------------------o|| ---------------------------------------------------------|
     ||---------------------------------------------------------------|| ---------------------------------------------------------|
     ||----------------------------------------------------------12---|| ---------------------------------------------------------|
     ||o------------------12------12------13------12------13h14------o|| ------------------12-------12------13p12-----------------|
     ||---12--15--12--15------15------15------15------15--------------|| --12--15--12--15------15-------15---------15---12-(12)--|
left-hand (1) (4) (1) (4) (1) (4) (1) (4) (2) (4) (1) (4) (2)(3) (1)       (1) (4) (1) (4) (1) (4) (1) (4) (2)(1) (4)   (1)
fingering



FIGURE 2- main riff (0:17)

     E5          A5          N.C.                           E5          A5           N.C.     E5
     /P.M._____________________________  (play 3x's)       /P.M._________________
    ||--------------------------------------------------|| ---------------------------------------|
    ||o------------------------------------------------o|| ---------------------------------------|
    ||--------------------------------------------------|| ---------------------------------------|
    ||----------------2-----2----------------------0----|| --------------2-----2------------------|
    ||o---2-----2-----0-----0-----1-----0-----1h2------o|| --2-----2-----0-----0-----1--0-----2---|
    ||----0--3--0--3-----3-----3-----3-----3------------|| --0--3--0--3-----3-----3--------3--0---|
left-hand(1)(2)(1)(2)(1)(2)(1)(2)(1)(3)   (3)(1(2)          (1)(2)(1)(2)(1)(2)(1)(2)(1)   (3)(2)
fingering


thats all i got, hoped it helped (not much of a pantera fan)!
Slash 490

Comments