Pantera - Cemetery Gates Chords & Tabs

 

Cemetery Gates Chords & Tabs

Pantera Chords & Tabs

Version: 2 Type: Tab 2 ratings
1 star 2 stars 3 stars 4 stars 5 stars
comments

Cemetery Gates Tab

#----------------------------------PLEASE NOTE--------------------------------#
#This file is the author's own work and represents their interpretation of the#
#song. You may only use this file for private study, scholarship, or research.#
#-----------------------------------------------------------------------------#
#-- File created with Instab - http://www.pconline.com/~smcarey/instab.html --#
#-----------------------------------------------------------------------------#

Author/Artist: Pantera
Title: Cemetery Gates
Album: Cowboys From Hell
Transcribed by: dr. krakpot
Email: evanh@remotepoint.com

My Guitar Tab Website: www.shockinc.cjb.net

This is a easier way to play that part with the harmonics:
^ = Pitched Harmonic
%= Repeat
[ Tab from: http://www.guitartabs.cc/tabs/p/pantera/cemetery_gates_tab_ver_2.html ]
-----------------------|-------------------|-----------------------|----------
-----------------------|-------------------|-----------------------|----------
-----------------------|-------------4^----|-----------------------|----------
-2--2--2--2--2--2--1--2|-3^----2--3----2--3|-2--2--2--2--2--2--1--2|----------
-0--0--0--0--0---------|-------------------|-0--0--0--0--0---------|----------
-----------------------|-------------------|-----------------------|----------
    PM _______                                  PM _______                    

-----------------------|-------------------|-----------------------|----------
-----------------------|-------------------|-----------------------|----------
-----------------------|-------------------|-----------------------|----------
-3^----1--2-----1^-----|-------------------|-----------------------|----------
-------------3------2--|-------------------|-----------------------|----------
-----------------------|-------------------|-----------------------|----------
 Then it goes into:     %                   %                                 

-----------------------|-------------------|-----------------------|----------
-----------------------|-------------------|-----------------------|----------
-----------------------|-------------------|-----------------------|----------
-------------------2--2|-2--2--4--4--4--4--|-5---------------------|----------
-2--3--4--4--4--4--0--0|-0--0--2--2--2--2--|-3----2--3--4----------|----------
-0--1--2--2--2--2------|-------------------|------0--1--2----------|----------
       PM _______     PM ____     PM ____                  %                  

Comments