Pantera - Cemetery Gates Chords & Tabs

 

Cemetery Gates Chords & Tabs

Pantera Chords & Tabs

Version: 1 Type: Tab 0 ratings
1 star 2 stars 3 stars 4 stars 5 stars
comments

Cemetery Gates Tab

#-----------------------------------------------------------------------------#
#-- File created with Instab - http://www.pconline.com/~smcarey/instab.html --#
#-----------------------------------------------------------------------------#

Author/Artist: Pantera
Title: Cemetery Gates 
KEY:
h      Hammer On
p      Pull Off
b      Bend String
r      Release Bend
/      Slide Up
\      Slide Down
v      Vibrato
t      Right Hand Tap
x      Mute Note
^      Pinched Harmonic 
xxxx   Palm Mute

Amp Settings:
Distortion  On
Gain        10
Mid         2
Treble      10 
Bass        4
    

--------------|------------|------------|-----0----|--------------------------
---------2----|-----0------|-----0------|---2---2--|--------------------------
-------2---2--|---4---4----|---4---4----|-4-------4|--------------------------
-----4-------0|-2-------2--|-2-------2-0|----------|--------------------------
---4----------|------------|------------|----------|--------------------------
-2------------|-----------0|------------|----------|--------------------------
                                                                              

--------------|-----------|------------|-----0------|-------------------------
---------2----|-----0-----|-----0------|-2-----2----|-------------------------
-------2---2--|---4---4---|---4---4----|---4-----4--|-------------------------
-----4--------|-2------2--|-2-------2-0|------------|-------------------------
---4---------0|-----------|------------|------------|-------------------------
-2------------|----------0|------------|-----------0|-------------------------
 Repeat as necessary                                                          

---0-----0--|---0-----0---|---------------------------------------------------
---3/5---5/7|---7/9---9/10|---------------------------------------------------
-4----------|-------------|---------------------------------------------------
-------0----|-0-----0-----|---------------------------------------------------
------------|-------------|---------------------------------------------------
------------|-------------|---------------------------------------------------
 Lead Melody: Electric                                                        

-------------|----------|-------------|------------|--------------------------
-------------|----------|-10-12---10--|------------|--------------------------
--9v-------8v|---------7|------------6|-9b10-------|--------------------------
-------------|----------|-------------|---------/9v|--------------------------
-------------|----------|-------------|------------|--------------------------
-------------|----------|-------------|------------|--------------------------
                                                                              

---------------|--------------|---------|---------|---------------------------
-----12b14-----|--------------|---------|---------|---------------------------
-------------8v|-14-b-17------|----14^--|---------|---------------------------
---------------|------------7v|---------|---------|---------------------------
---------------|--------------|---------|---------|---------------------------
---------------|--------------|---------|---------|---------------------------
                                                                              

-----------------|------------|-------------|------------|--------------------
-----------------|------------|-------------|------------|--------------------
-----------4^b6r4|4b6r4v---4b2|-----9^b11r9v|-9b11r9b11r9|--------------------
-----4----x------|------------|2------------|------------|--------------------
---x----x--------|------------|-------------|------------|--------------------
-x---------------|------------|-------------|------------|--------------------
                                                                              

------------------|-----9---9v|--7----10v|----10/12----12/14|-----------------
------------------|-----------|----3/----|-12-------14------|-----------------
-11r9b11r9b11r9b11|-/9----9---|----------|------------------|-----------------
------------------|-----------|----------|------------------|-----------------
------------------|-----------|----------|------------------|-----------------
------------------|-----------|----------|------------------|-----------------
                                                                              

----14/16v------16-17v|---------|------------|--------------------------------
-15----------17-------|---------|------------|--------------------------------
----------------------|---------|------------|--------------------------------
----------------------|---------|------------|--------------------------------
----------------------|---------|------------|--------------------------------
----------------------|---------|------------|--------------------------------
 Chorus riff                                                                  

----------------|----------------|----------------|--------------|------------
-xxxxxxxxxxxxxx-|----------------|xxxxxxxxxxxxxxxx|--------------|------------
----------------|----------------|----------------|--------------|------------
-7--------------|---------9^-----|-7--------------|--------------|------------
-7-7-7-7-7-7-6-7|-8^--7-8-----7-8|-7-7-7-7-7-7-6-7|-8^--6-7---6-7|------------
-5-5-5-5-5------|----------------|-5-5-5-5-5------|---------8----|------------
                                                                              

-------------------|----------------------------------------------------------
-------------------|----------------------------------------------------------
-------------------|----------------------------------------------------------
------------2-----3|----------------------------------------------------------
-8--6-7-6/--2-----3|----------------------------------------------------------
--------6/--0-----1|----------------------------------------------------------
 Repeat as necessary                                                          

-xxxxxxxxxxxxxx-|xxxxxxxxxxxxxx|xxxxxxxxxxxxxxxx|xxxxxxxxxxxxxx|---------|----
----------------|--------------|----------------|--------------|---------|----
-------2-------4|-------5------|-------2-------4|-------5------|---------|----
-4-----2-2-2-2-4|-4-4-4-5---2-3|-4-----2-2-2-2-4|-4-4-4-5--2--3|-4-------|----
-4-4-4-0-0-0-0-2|-2-2-2-3---2-3|-4-4-4-0-0-0-0-2|-2-2-2-3--2--3|-4-------|----
-2-2-2----------|---------0-0-1|-2-2-2----------|----------0--1|-2-------|----
 Bridge                                                                       

-----------|-----------|----------|-------|-----------------------------------
-----------|-----------|----------|-------|-----------------------------------
--------2-2|-------2---|------2---|-------|-----------------------------------
-4--------2|----------2|---------7|---7--4|-----------------------------------
-4--3/4---0|---3/4----2|--3/4----5|---4--2|-----------------------------------
-2---------|----------0|----------|-------|-----------------------------------
 Repeat                                                                       

---------|------------|-----------|-------------------------------------------
---------|------------|-----------|-------------------------------------------
------2-2|------------|-----------|-------------------------------------------
---------|-7-7-7-7----|-----------|-------------------------------------------
--3/4----|-5-5-5-4---7|-7\--------|-------------------------------------------
---------|-----------4|-5\--------|-------------------------------------------
 Chorus Variation                                                             

----------------|--------------|-xxxxxxxxxxxxxx-|--------------|--------------
-xxxxxxxxxxxxxxx|--------------|----------------|--------------|--------------
----------------|--------------|----------------|--------------|--------------
-7--------------|--------9^----|-7--------------|--------------|--------------
-7-7-7-7-7-7-6-7|-8^-7-8----7-8|-7-7-7-7-7-7-6-7|-8^-6-7---6---|--------------
-5-5-5-5-5------|--------------|-5-5-5-5-5------|--------8---7v|--------------
 Repeat Once                                                                  
[ Tab from: http://www.guitartabs.cc/tabs/p/pantera/cemetery_gates_tab.html ]
-----------------|----------|-------------|xxxxxxxxxxxxxxx|-------------|-----
-----------------|----------|-------------|---------------|-------------|-----
-----------------|----------|-------------|---------------|-------------|-----
-----------------|----------|-------9^----|7--------------|-------------|-----
-8^-6-7---6------|-----7-6-7|-8^7-8----7-8|7-7-7-7-7-7-6-7|-8^-6-7---6--|-----
--------8---7b8r7|--8v------|-------------|5-5-5-5-5------|--------8---7|-----
 Repeat from beginning of Chorus Variation (below, repeat from C.V after)     

-xxxxxxxxxxx|-xxxxxxxxxxxxxxx|------------------------------------------------
------------|----------------|------------------------------------------------
------------|----------------|------------------------------------------------
------------|----------------|------------------------------------------------
------------|----------------|------------------------------------------------
-5-0-1-5-0-1|-5-5-0-1-5-5-0-1|------------------------------------------------
 Solo:                                                                        

-----------------|--5---5-4|-----9---9v|---------|----------------------------
-/2-2-3-5/7\5-3-2|----2----|-----------|--5/-----|----------------------------
-----------------|---------|--/9---9---|---------|----------------------------
-----------------|---------|-----------|---------|----------------------------
-----------------|---------|-----------|---------|----------------------------
-----------------|---------|-----------|---------|----------------------------
                                                                              

-12---10v---10\9|----9-----|----------------|----7---7----|-------------------
----9-----------|-12---10v\|-/10-9-8-7-6-5/6|-7v---7---9b-|-------------------
----------------|----------|----------------|-------------|-------------------
----------------|----------|----------------|-------------|-------------------
----------------|----------|----------------|-------------|-------------------
----------------|----------|----------------|-------------|-------------------
                                                                              

----------|---------|--------------9-10-12-10-9----9-12/14-12|----------------
-7-7b9-t10|-8\5-----|-\-/9-9-10-12--------------12-----------|----------------
----------|---------|----------------------------------------|----------------
----------|---------|----------------------------------------|----------------
----------|---------|----------------------------------------|----------------
----------|---------|----------------------------------------|----------------
                                                                              

-10-14-10-14/16-17-16-14-17-14-17/21-21-17----17|-----19\16----16--------|----
-------------------------------------------19---|-19--------17----17v----|----
------------------------------------------------|------------------------|----
------------------------------------------------|------------------------|----
------------------------------------------------|----------------------x\|----
------------------------------------------------|----------------------x\|----
                                                                              

-------------------------------------|-9^------9^------9^-----|---------------
-------------------------------------|-10^-----10^-----10^---\|---------------
----------------------------8-9-10-11|-----x-x-----x-x--------|---------------
----------6-7-8-9-8-9-10-11----------|------------------------|---------------
-7-8-9-10----------------------------|------------------------|---------------
-------------------------------------|------------------------|---------------
                                                                              

---------14----------------14----------------14|------------------------------
------14----17-14-------14----17-14-------14---|------------------------------
-16b18------------16b18-------------16b18------|------------------------------
-----------------------------------------------|------------------------------
-----------------------------------------------|------------------------------
-----------------------------------------------|------------------------------
                                                                              

----------------14-------------14-------14-------14------|--------------------
-17-14-------14----17-14-17b19----17b19----17b19----17b19|--------------------
-------16b18---------------------------------------------|--------------------
---------------------------------------------------------|--------------------
---------------------------------------------------------|--------------------
---------------------------------------------------------|--------------------
                                                                              

-21-14-16-21-14-16-21-14-20-20-14-20-20-14-20-14|-----------------------------
------------------------------------------------|-----------------------------
------------------------------------------------|-----------------------------
------------------------------------------------|-----------------------------
------------------------------------------------|-----------------------------
------------------------------------------------|-----------------------------
                                                                              

-19^-20-16-17----19^-20-19-17----------------------16|------------------------
--------------19--------------19-19-19-19v-\-17-19---|------------------------
-----------------------------------------------------|------------------------
-----------------------------------------------------|------------------------
-----------------------------------------------------|------------------------
-----------------------------------------------------|------------------------
                                                                              

-17-16-14----14-16/19-17-14-14-14-17-14-17-14----14------------------|--------
----------17----------------------------------17----17-14-17-14----14|--------
----------------------------------------------------------------17---|--------
---------------------------------------------------------------------|--------
---------------------------------------------------------------------|--------
---------------------------------------------------------------------|--------
                                                                              

----------------------------------------------|-------------------------------
-15-14-15-14\13-14-13\12-13-12----12----------|-------------------------------
-------------------------------14----14-11-11v|-------------------------------
----------------------------------------------|-------------------------------
----------------------------------------------|-------------------------------
----------------------------------------------|-------------------------------
                                                                              

---------------------------------------|----------------------------|---------
---------------------------------------|----------------------------|---------
-14-16-14--9-11--13-11--12-10--11-9--10|8--9-7--8-6--7-5--6-4---x-6^|---------
---------------------------------------|----------------------x-----|---------
---------------------------------------|----------------------------|---------
---------------------------------------|----------------------------|---------
 Chorus Riff Variation:                                                       

-----------------|--------------|-----------------|---------------------------
-----------------|--------------|-----------------|---------------------------
-----------------|--------------|-----------------|---------------------------
--------2-2-2-224|-4-4-445------|--------2-2-2-224|---------------------------
-4-4-44-0-0-0-002|-2-2-223--2--3|-4-4-44-0-0-0-002|---------------------------
-2-2-22----------|----------0--1|-2-2-22----------|---------------------------
                                                                              

-----------------|------------------------------------------------------------
-----------------|------------------------------------------------------------
-----------------|------------------------------------------------------------
-4-444-445---4--2|------------------------------------------------------------
-2-222-223---2--0|------------------------------------------------------------
-----------------|------------------------------------------------------------
 Repeat as necessary                                                          

----------------|----------|--------------------------------------------------
----------------|----------|--------------------------------------------------
----------------|----------|--------------------------------------------------
-4-444-4-4-5-4--|-5-4------|--------------------------------------------------
-2-222-2-2-3-2-2|-3-2-2----|--------------------------------------------------
---------------4|-----4----|--------------------------------------------------
                                                                              

Comments