Pantera - Cemetery Gates Chords & Tabs

 

Cemetery Gates Chords & Tabs

Pantera Chords & Tabs

Version: 1 Type: Bass Tab 1 rating
1 star 2 stars 3 stars 4 stars 5 stars
comments

Cemetery Gates Bass Tab

title-cemetery gates
artist-pantera
album-cowboys from hell
tabbed by-bobby siegfried
type-bass tablature
send comments, corrections, tabs to: rustyrptle@aol.com
   
   5x
G| ---------------------------------------- |-----------------------
D|.----------------------------------------.|-----------------------
A|.---------0-----0-2-----0-----5--4-2-0---.|---------0---2-0-2-----
E| -2---0-2-----4-----0-----4-0----------0- |-2---0-2-----------0---

                             2x
---------7-6-4---4-7-------| ---------------- |-------|-------------
---------------7-----------|.-4---4---4---4--.|-----2-|-------------
--0-2-5--------------------|.----------------.|-2-4---|---------0---
4--------------------------| ---------------- |-------|-2---0-2-----
[ Tab from: http://www.guitartabs.cc/tabs/p/pantera/cemetery_gates_btab.html ]
------------------------------------------------------------7-6-4---
------------------------------------------------------------------7-
--0-2-----0-----5--4-2-0-------------0---2-0-2-------0-2-5----------
4-----0-----4-0----------0---2---0-2-----------0---4----------------

4-7-------|
----------|
----------|
----------|

HEAVY PART 
   2x
G| -------------------------------------------------------- |------
D|.------------------------3-------------------------------.|------
A|.--------------------------------------7-6-7-8-6-7---6---.|------
E| -5-5-5-5-5-5-4-5-1-1--1---1-5-5-5-5-5-------------8---7- |-5-5-5

--------------------------------------------------|
------------------3-------------------------------|
--------------------------------7-6-7-8-6-7-7-----|
-5-5-5-4-5-1-1--1---1-5-5-5-5-5---------------0-1-|

QUICKER HEAVY PART
   3x
G| -------------------------- |--------|
D|.--------------------------.|--------|
A|.-------0-0-0-2-2-2-3------.|--------|
E| -2-2-2----------------0-1- |-2------|

Comments