Pantera - By Demons Be Driven Chords & Tabs

 

By Demons Be Driven Chords & Tabs

Pantera Chords & Tabs

Version: 1 Type: Bass Tab 0 ratings
1 star 2 stars 3 stars 4 stars 5 stars
comments

By Demons Be Driven Bass Tab

Band- Pantera
Song- By Demons Be Driven

starts out with
g--------------------------|
d--------------------------|
a-3-3-3-3------------------|
e--------------------------|

then it goes
[ Tab from: http://www.guitartabs.cc/tabs/p/pantera/by_demons_be_driven_btab.html ]
g-----7-9-7------------------------------------------|
d---9-------9--8-7--5---7-5---7-5--------------------|
a-7-------------------7-----7-----5-6-7--------------|
e----------------------------------------------------|
repeat ^ 4 times

Then this throug the rest of the song
g--------------------------|
d--------------------------|
a-3-3-3-3------------------|
e--------------------------|
Comments