Pantera - Becoming Chords & Tabs

 

Becoming Chords & Tabs

Pantera Chords & Tabs

Version: 7 Type: Tab 0 ratings
1 star 2 stars 3 stars 4 stars 5 stars
comments

Becoming Tab

   
-----------------------------------------------------------------------
			     Becoming - Pantera
-----------------------------------------------------------------------
Tabbed by: Ben Price
Email:

Tuning: low to high: D G C F A D

*=Bend up 2 octaves with whammy pedal.

Intro/Interlude
  S S E E S S E E S S E S S E E S S E E S S E
d|---------------------|----------------------|
A|---------------------|----------------------|
F|---------------------|----------------------|
C|---------------------|----------------------|
G|5-5-5---5-5-5---5-5-5|5-5-5---5-5-5---5-5---|
D|5-5-5---5-5-5---5-5-5|5-5-5---5-5-5---5-5---|


Main Riff
  E E E S+S E E E S S E E E S+S E E Q
d|-------------------|------------------|
A|----*--------------|----*-------------|
F|----5--------------|----5-------------|
C|----x--------------|----x-------------|
G|2-2-3-5\4-2-2---5\4|2-2-3-5\4-2-4-5---|
D|0-0---3\2-0-0---3\2|0-0---3\2-0-2-3---|
Pm. .       . .       . .       . .
[ Tab from: http://www.guitartabs.cc/tabs/p/pantera/becoming_tab_ver_7.html ]
Verse
  E E E S S E E E S S  E E E S S E E Q
d|--------------------|------------------|
A|--------------------|------------------|
F|--------------------|------------------|
C|------1p0-1-----1p0-|1-----1-0-1-------|
G|2-2---1p0-1-2---1p0-|1-2---1-0-1-4-5---|
D|0-0---------0-------|--0---------2-3---|
Pm. .                            pm.

Chorus
  Q    Q   E E Q    +W     E E Q   E E Q     +W
d|-----------------|------|-----------------|------|
A|-----------------|------|-----------------|------|
F|-----------------|------|-----------------|------|
C|-----------------|------|-----------------|------|
G|/9---7---4-3-5---|(5)---|---------4-3-5---|(5)---|
D|/7---5---2-1-5---|(5)---|/7-6-5~~~2-1-5---|(5)---|
         Pm. .                 ph pm. .

Guitar Solo: Pretty much weird improvisation on high frets w/whammy pedal and tremolo
bar.

Outro
  E E Q E E Q  E E Q E E Q   E E Q E E Q  E E Q E E Q
d|------------|--------------|------------|--------------||
A|------------|--------------|------------|--------------||
F|------------|--------------|------------|--------------||
C|------------|--------------|------------|--------------||
G|2-2---2-2---|2-2---2-4-5---|2-2---2-2---|2-2---2-4-5---||
D|0-0---0-0---|0-0---0-2-3---|0-0---0-0---|0-0---0-2-3---||
Pm. .   . .    . .   . .      . .   . .    . .   . .


| /  slide up
| \  slide down
| h  hammer-on
| p  pull-off
| ~  vibrato
| ph pinch harmonic
| x  Mute note
| pm.palm mute
=======================================================================
Comments