Pantera - Becoming Chords & Tabs

 

Becoming Chords & Tabs

Pantera Chords & Tabs

Version: 4 Type: Tab 0 ratings
1 star 2 stars 3 stars 4 stars 5 stars
comments

Becoming Tab

   
Pantera
Far Beyond Driven
"Becoming"
D tuning (not drop D)
tabbed by Dimebag Derek

Intro:(riff 1)
-----------------------------------------
-----------------------------------------
-----------------------------------------
-----------------------------------------
-5-5-5---5-5-5---5-5-5-5-5-5--5-5-5--5-5-
-5-5-5---5-5-5---5-5-5-5-5-5--5-5-5--5-5-

(riff 2)
-----19-----------19-------
---------------------------
-----15-----------15-------
---------------------------
---------------------2-4-5-
-0-0----0-0---0-0----0-2-3-
[ Tab from: http://www.guitartabs.cc/tabs/p/pantera/becoming_tab_ver_4.html ]
Verse:(riff 3)
----------------------------
----------------------------
----------------------------
----------------------------
-3-2----3-2----3-2------4-5-
-1-0--0-1-0--0-1-0--0-0-2-3-

Then play riff 2.

Chorus:(riff 4)
-----------------------------
-----------------------------
-----------------------------
-----------------------------
-9--7--4-3-5----9-8-7--4-3-5-
-7--5--2-1-5----7-6-5--2-1-5-

That is basically it!  pretty easy song actually, it'd be a lot easier 
if you had a digitech whammy pedal.  but since many people don't have 
it, i tabbed out the high pitched squeels.  it's not totally exact but 
really close.  the rest of the song is pretty accurate.  this is a kick 
ass song my band and i love to jam on, hope you have just as much fun!!  
if you have any questions or corrections, e mail me at 
DimebagDarrell66@hotmail.com
Comments