Pantera - Becoming Chords & Tabs

 

Becoming Chords & Tabs

Pantera Chords & Tabs

Version: 1 Type: Bass Tab 0 ratings
1 star 2 stars 3 stars 4 stars 5 stars
comments

Becoming Bass Tab

Bass Tab 
PANTERA
Becoming 
Far Beyond Driven
~~~~~~~~~~~~~~~~~~
By Cord
(Tune down to Gb, Db, Ab, Db) 
TIP: YOU DON'T HAVE TO TUNE ALL YOU 
STRINGS DOWN JUST YOU E
STRING(TO Db).
##########################################
Intro 2x
^^^^^
Gb|-----------------------|
Db|-----------------------| 
Ab|-----------------------|
Db|-4-4-4--4-4-4--4-4-4---|


Riff 1
^^^^^^
Gb|----------------------------------------------|
Db|----------------------------------------------|
Ab|----------------------------------------------|
Db|--2-2--*--2---2-2-**-5--2-2--*--2-2--4--5-----|
(this riff will take a while to get right )
*=whare the Dimebag Dose the screaming on guitar.
**=rest (hope that helped you).
[ Tab from: http://www.guitartabs.cc/tabs/p/pantera/becoming_btab.html ]
Riff 2
^^^^^^
A long time a go......
Gb|----------------------------------------------|
Db|----------------------------------------------|
Ab|----------------------------------------------|
Db|-1-2---1--1--2--1--1--2---1--1--2---5---------|


Riff 3
^^^^^^
I'm born again with snakes eyes, becoming Godsize...
Gb|----------------------------------------------|
Db|----------------------------------------------|
Ab|----------------------------------------------|
Db|-9--7---4--3---0~----9-8-7---4--3--0~---------|

Fills
Gb|-----------------------|
Db|-----------------------|
Ab|-----------------------|
Db|-2-2-2--2-2-2--2-2-----|

End
Gb|---------------------------------------------|
Db|---------------------------------------------|
Ab|---------------------------------------------|
Db|-2-2--2-2--2-2--2-4-5---2-2--2-2--2-2--2-4-5-|
THIS SONG is the shit, REX BROWN is da man

Idont know how many times the riffs are played. 
Fill free to make any corrections or E-Mail (cord@cumy.com)me
Thanx

Comments