Pantera - Avoid The Light Chords & Tabs

 

Avoid The Light Chords & Tabs

Pantera Chords & Tabs

Version: 1 Type: Tab 0 ratings
1 star 2 stars 3 stars 4 stars 5 stars
comments

Avoid The Light Tab

   

   Song: AVOID THE LIGHT
   Artist: Pantera
   Album: Dracula 2000
   By:PANTHERX
   E-mail: pantherX19@yahoo.com


h     hammer-on
p     pull-off
t     tapping
N.H   natural harmonic
A.h   artificial harmonic
P.M   palm mute
/     slide up
\     slide down
b     bend
r     release


Learn this kick ass song

Intro:

E|--------8--8--8--8--8--8--8--8--8--8-|------|-----|-----|-----|
B|--8-10--11-11-11-11-11-11-11-11-11-11|--10--|--6--|--3--|--4--|
G|--0--0--0-----------0-----------0----|---0--|--0--|--0--|--0--|
D|-------------------------------------|------|-----|-----|-----|
A|-------------------------------------|------|-----|-----|-----|
E|-------------------------------------|------|-----|-----|-----|


E|-----------|--------|---11--|--13--|--15~--|
B|-----8-10--|--11----|---13--|--11--|--15~--|
G|-----0--0--|---0----|----0--|---0--|-------|
D|-----------|--------|-------|------|-------|
A|-----------|--------|-------|------|-------|
E|-----------|--------|-------|------|-------|


Clean:

E|-----------------------------------------------------------------------|
B|-----------------------------------------------------------------------|
G|---------0------------0----------0----------0---------0---------0------|
D|------0------------0----------0----------0-----------------------------|
A|-----------------------------------------------------------------------|
E|--3------------4-----------1----------6-----------5---------4----------|


E|-----------------------------------------------------------------------|

B|-----------------------------------------------------------------------|

C|----------0----------0----------0----------0-------0---------0---------|
D|-------0----------0----------0----------0------------------------------|
A|-----------------------------------------------------------------------|
[ Tab from: http://www.guitartabs.cc/tabs/p/pantera/avoid_the_light_tab.html ]
E|---3----------6----------5-----------9-----------8---------6-----------|


E|---------------------------------------------------------------|
B|---------------------------------------------------------------|
G|---------0----------0----------0----------0----------0-------0-|
D|------0----------0----------0----------0-----------------------|
A|---------------------------------------------------------------|
E|---3----------4----------1----------6----------5-------4-------|



E|-----------------------------------|---------------------------|
B|-----------------------------------|---------------------------|
G|---------0-----------0-----------0-|---------0--------0--------|
D|-------0-----------0-----------0---|------0--------------0-----|
A|-----------------------------------|---------------------------|
E|---3-----------6-----------5-------|--3------------3-----------|


Still clean:

E|-------------------------------|
B|---8-10-11----8-10--11---------|
G|---0--0--0----0--0---0---------|
D|-------------------------------|
A|-------------------------------|
E|-------------------------------|



Distorted Riff 1:

            A.h
E|--------------------------------------------------|
B|--------------------------------------------------|
G|-----------3---------------------3----------------|
D|-----------4-----0---------------4-----0---/4-----|
A|-\2--------------2-------2~------------2----------|
E|-\0------------------2---0~-----------------------|


Distorted Riff 2:

        A.h           A.h....         A.h........

E|---------------------------------------------------------|
B|---------------------------------------------------------|
G|--------7------------------7-----------------------------|
D|----------------------9-------------/9-------/9----------|
A|---------------------------------------------------------|
E|--0------------0-----------------------------------------|


Comments