Pantera - Art Of Shredding Chords & Tabs

 

Art Of Shredding Chords & Tabs

Pantera Chords & Tabs

Version: 2 Type: Tab 0 ratings
1 star 2 stars 3 stars 4 stars 5 stars
comments

Art Of Shredding Tab

Art of Shredding - Pantera
Tab by Jesse Murphy
Riff 1. with Wah 
This is pretty much how Dimebag plays the song, the other tabs on this site were close but im tired of seeing people butcher this song.
D|------------1-------------------1-------pick scrape,  -------------------|
A|---2-------1--------2----------1------shake back and forth---------------|
E|---0---0------------0-----0------------all the way down------------------|

                                                       N.H. right after 2nd fret
G|----------------------------------------(3)------------------|
D|-----------1-------------------1-----------------------------|
A|---2-------1--------2----------1-----------------------------|
E|---0---0------------0-----0----------------------------------|

Riff 2.
B|----------------------------------------------||--------------------------------------------|
G|----------------------------------------------||---------------PH and Bend sharply----------|
D|---------------4--2---------------------------||---------------(4)--(2)---------------------|
A|----------------------5--4--2----0--3----^^^--||--------------------------5--4-2--0--3--^^^-|
E|-----0--2----------------------3----------4---||---/-0--2------------------------3------4---|

Riff 3. 
G|------------------------------------------------------------------|Play 2 times
D|---4---4----2----2------------------------------------------------|
A|-----2----2----2----2---5--5--4--5--5--4---5--4--2--0-------------|
E|------------------------------------------------------------------|

Riff 4.

D|------------------------------------------------------------------| Play 2 times
A|---4---4----2----2------------------------------------------------|
E|-----2----2----2----2---5--5--4--5--5--4---5--4--2--0-------------|
[ Tab from: http://www.guitartabs.cc/tabs/p/pantera/art_of_shredding_tab_ver_2.html ]
G|----------------------------you will have to time it yourself. hard to type, easy to play.
D|---6---6---7---7---6--6-6-6--6-6--7--7-7-7--7-7----6-6-6-6-6-6--|
A|-----4---4---4---4---------------------------------4-4-4-4-4-4--|
E|----------------------------------------------------------------|


Riff 6. Fast Part

this is the hardest part of the song, but its easy if you remember the open notes alternate from two in a row to just one every other power chord
D|------------3------2----5-------------8/7
A|-------5----1------0----3-------------6/5
E|---0-0-3--0---0-0----0----0-0-6p0------

Riff 7.
G|-------------------|
D|3/4--4\3--3/4--4\3-|
A|1/2--2\1--1/2--2\1-|
E|-------------------|
   
Riff 8.
B|----------just listen and play the repeated notes, never acually count them-------|
G|--------------------------------------------------------------------------------------------------------------|
D|--------------------------------------------------------------------------------------------------------------|
A|--------------------------------------------------------------------------------------------------------------|
E|---0-0-0-0-0-0-0-0-0-0-0-0-2/4--4-4-4-4-4-4-4-4-4-4-4-4-4--0-0-0-0-0-0-0-0-0-0-0-|

Riff 9.
D|---8/7---8/7---8/7-----------------|
A|---6/5-0-6/5-0-6/5-5--5-5-5-5-5-5--|
E|-----------------------------------|

Riff. 10


|--------------------------------|-------------------------------|------------------------------------
|--------------------------------|-------------------------------|-------------------------------------
|---4/3--4/3--4-----------------||---4/3--4/3--4-----------------|------------------------1st time-
|---2/1--2/1--2--2---2-2-2-2-2-2||---2/1--2/1--2--4---4-4-4-4-4-4|---4/3--4/3--[4/6--6-6-6-6-6]
|----------------0---0-0-0-0-0-0||----------------2---2-2-2-2-2-2|---2/1--2/1--[2/4--4-4-4-4-4]

B|----------------------------------------------
G|----------------------------------------------
D|----------------2nd time----------------------
A|---[4/3-4/3-4/6---6-6-6-6-6-6--5--5-5--4--4-4]
E|---[2/1-2/1-2/4---4-4-4-4-4-4--3--3-3--2--2-2]
the last time you play the above part, pick slide the repeated notes

thats it for now, any questions...ItsGLooM@aol.com
Comments