Pantera - All Over Tonight Chords & Tabs

 

All Over Tonight Chords & Tabs

Pantera Chords & Tabs

Version: 1 Type: Tab 0 ratings
1 star 2 stars 3 stars 4 stars 5 stars
comments

All Over Tonight Tab

   
Band- Pantera
Song- All Over Tonight

TUNED DOWN TO D (low to high: D,G,C,F,A,D)

^ = bend and release


INTRO/PRE-CHORUS

|---------------------------------|
|--5-5--7-7--8-8--7-7-------------|
|--4-4--6-6--7-7--6-6-------------|
|---------------------------------|
|---------------------------------|
|-----------------------0-0-0-0---|
[ Tab from: http://www.guitartabs.cc/tabs/p/pantera/all_over_tonight_tab.html ]
|---------------------------------|
|--5-5--7-7--8-8--7-7-------------|
|--4-4--6-6--7-7--6-6---7--6------|
|-----------------------5--4------|
|---------------------------------|
|---------------------------------|


CHORUS

  its     all     over             tonight
|-----------------------------------------------------------------------|
|---------8-----------7-7/8-7-5-----------------------------------------|
|---------7-------7---6-6/7-6-4----9------------------------------------|
|---------5-------7----------------9------------------------------------|
|-----------------5----------------7----------6-5---5-6--5^--6-5---5-6--|
|-------------------------------------------------3--------------3------|
                                              w/ slight randomized
                                                 pinch harmonics
Comments