Pantera - 5 Minutes Alone Chords & Tabs

 

5 Minutes Alone Chords & Tabs

Pantera Chords & Tabs

Version: 3 Type: Bass Tab 0 ratings
1 star 2 stars 3 stars 4 stars 5 stars
comments

5 Minutes Alone Bass Tab

                5 Minutes Alone-Pantera R.I.P. "DimeBag" Darrell Abbott


E--------------------|--------------------|
A--------------------|--------------------|
D--------------------|--------------------| Play this three times 
G-3-5-0----3-5-0-----|-3-5-0----6-3-0-----|

E--------------------|
A--------------------|
D--------------------|
G-3-5-0----3-5-0-----|

                
E------------------------------------|
A-----9------------------------------|
D-5-9---9-8-7-5---5------4------2----|
G---------------7---5-3----3-1----1--|


E--------------------------------------|
A--------------------------------------|
D--------------------------------------|
G-----0--0--0-----0--0--0-----0--0--0--| play eight times


E-----------------------------------------------|
A-----------------------------------------------|
D-----------------------------------------------|
G---0---0---0-----0----0-0-----0-0-0------------| play twice

[ Tab from: http://www.guitartabs.cc/tabs/p/pantera/5_minutes_alone_btab_ver_3.html ]
E------------------------------------------------|
A-----------5------------------------------------|
D------7---------6--(6)--------------------------|
G-0---------------------5-(5)--------------------|



E------------------------------------------------|
A-----------5------------------------------------|
D------7---------6--(6)--------------------------|
G-0---------------------5----(5)-(5)-3-----------|



E------------------------------------------------|
A-----------5------------------------------------|
D------7---------6--(6)--------------------------|
G-0---------------------5-------(5)--------------|



E-----------------------------------------------|
A-----------------------------------------------|
D-----------------------------------------------|
G---0---0---0-----0----0-0-----0-0-0------------|play twice


E------------------------------------------|
A------------------------------------------|
D------------------------------------------|
G-7---------------------------2------1-----|
Comments