Pantera - 13 Steps To Nowhere Chords & Tabs

 

13 Steps To Nowhere Chords & Tabs

Pantera Chords & Tabs

Version: 2 Type: Tab 0 ratings
1 star 2 stars 3 stars 4 stars 5 stars
comments

13 Steps To Nowhere Tab

: for www.ultimate-guitar.com 
: 
: New Tabs
: 27  2000 . 22:19

Pantera:13 steps to nowhere.
 Tabbed by Tyler King:CLKING@Highland.net.
  
This is from the book so it
should be right.
PANTERA:13 STEPS TO NOWHERE
from the album:THE GREAT SOUTHERN TRENDKILL
Transcribed by:Tyler King
Words and music by:Vincent Paul Abbott,Darrell Lance Abbott,
Rex Robert Brown,and Phillip Hansen Anselmo

Intro riff:Tuned down 1 1/2 steps
E-----------------------------------------------------|
B-----------------------------------------------------|
G-----------------------------------------------------|
D--2------------2-------------------------------------|
A--2---8--(8)\--2---8--(8)\---------------------------|
E--0---6--(6)\--0---6--(6)\---------------------------|

riff 2:Its pretty damn fast

E-----------------------------------------------------
B-------------------------------------------------------------------------|
G------------------------------------------------------------12----14-----|
D---------------------------5---7----------12----14-12-13-14----14--------|
A-2-------------5---7-5-6-7---7---12-13-14----14--------------------------|
E-0--/7---5-6-7---7-------------------------------------------------------|

Verse riff:
E--------------------------------------------------------------|
B--------------------------------------------------------------|
G--------------------------------------------------------------|
D-2-----------------0--------2-------------------------5---7---|
A-2--8--(8)\----1h2---1p0----2--8\--------5---7-5--6-7---7-----|
E-0--6--(6)\--0-----------3--0--6\--5-6-7---7------------------|

Chorus:
E------------------------------------------------------|
B------------------------------------------------------|
G------------------------------------------------------|
D--8--8----------8--8----------8--8-----------8--8-----|
A--6--6----------6--6----------6--6-----------6--6-----|
E--6--6--(0)-(0)-6--6--(0)-(0)-6--6--(0)-(0)--6--6-----

E-----------------------------------------------------------------------|
B-----------------------------------------------------------------------|
G-----------------------------------------------------------------------|
D----------8--8----------8----------------------------------bend--------|
A----------6--6----------6---wah---------------------bend--(5)---2------|
E--(0)-(0)-6--6--(0)-(0)-6---(5h7-7-5h7-7-5h7-7-7)-(4)---1--------------|
[ Tab from: http://www.guitartabs.cc/tabs/p/pantera/13_steps_to_nowhere_tab_ver_2.html ]
Bridge:
E-----------------------------------------------------------------------------------|
B-----------------------------------------------------------------------------------|
G-----------------------------------------------------------------------------------|
D----------------------------------------------------------------------------6--4---|
A----------------------------------------------------------5---2----bend-----4--2---|
E-1-4-5-6~--1-4-5-6~--1-4-5-6~--1-4-5-6~--1-4-5-6~--4---1---------(4)-----1--4--2---|

Intrelude from bridge:
E--------------------------------------16---------------------------------------------
B------------------------------------------------------(7)bend---------|
G--1-----4--1--4-----7--4----------------------------------------------|
D-----3-----------6----------------------------------------------------|
A--------5--2--------5--2--------5--2------------5--2------------------|
E--4--1--------4--1--------4--1------------4--1------------------------|

E----------------------------------------------------------------------
B---------------12-----------------(17)bend--------------17(17)bend-----------------bend---|
G----------------------------------------------------------------------------------(7)-----|
D------------------------------------------------------------------------------------------|
A--------5--2---------------5--2-------------5--2---------------------------5--2-----------|
E--4--1--------------4--1--------------4--1---------------------------4--1-----------------|

E------------------------------17--(17)bend--------------------------20bend------|
B--------------12------------------------------------17--(17)--------23----------|
G--------------------------------------------------------------------------------|
D--------------------------------------------------------------------------------|
A--------5--2------------5--2------------------5--2------------------------------|
E--4--1------------4--1------------------4--1------------------4--1--------------|

Outro:
E------------------------------------------------------------------
B------------------------------------------------------------------|
G------------------------------------------------------------------|
D------------------------2-----------------------------------------|
A--5h7-7-7-7-7-7-7-7-7\--2--8--5h7-7-7-7-7-7-7-7-7\----------------|
E------------------------0--6--------------------------------------|

Thats all folks. If you find any mistakes, E-mail me 
:: Ultimate Guitar Archive :: 
http://www.ultimate-guitar.com 

Comments