Panic Cell - Thousand Words Chords & Tabs

 

Thousand Words Chords & Tabs

Panic Cell Chords & Tabs

Version: 1 Type: Tab 0 ratings
1 star 2 stars 3 stars 4 stars 5 stars
comments

Thousand Words Tab

   
Thousand Words by Panic Cell
Transcribed by Andrew George

Comment - At first I couldn't believe I got this from listening to the song.
          It is quite difficult to work the fingers around the strings and
          not accidently mute the notes. I only wrote this tab for people 
          that want to stay at home for a quick play. Sorry about the note 
          lengths, it's hard to tell when it is an 8th note or a 16th note
          so you'll have to listen to the song for the right note values.

          Have fun!

Tuning (low to high) - D G C F A D
[ Tab from: http://www.guitartabs.cc/tabs/p/panic_cell/thousand_words_tab.html ]
D-------------------------------0-----------------------------------D
A----------0-----------0------3----------0--------------------------A
F--------0---0-------2------2----------0---0---------4bubd-----2-4--F
C------4-------0---0-----------------4-------4-----4-------2-4------C
G----2-----------2--------1--------------------2--------------------G
D-0-------------------------------0--------------3------------------D

D-------------------------------0--------2p0----0-----------------D
A---------0-------------0-------------------3p2---0---------------A
F-------0---0-----------------------------------------------------F
C-----4-------4-------4-------4--------4--------------------------C
G---2-----------2---2-------2--------2----------------------------G
D-0---------------2-------1-------0----------------6---4---3-1-0--D

Key:

bu - Bend up
bd - Bend down
Comments