Panic Cell - Away From Here Chords & Tabs

 

Away From Here Chords & Tabs

Panic Cell Chords & Tabs

Version: 1 Type: Bass Tab 0 ratings
1 star 2 stars 3 stars 4 stars 5 stars
comments

Away From Here Bass Tab

   
                            AWAY FROM HERE (Bassline)
                            As recorded by Panic Cell
                     (From the 2004 Album BITTER PART OF ME)


Gtr I (C G C F) - 'Untitled'

 Intro
  Q=94
 4/4
  Gtr I
  Wx2
|--------|
|--------|
|--------|
|--------|


  E S S S S E S S S S E S S   E S S S S E S S S S E S S
|---------------------------|---------------------------|
|---------------------------|---------------------------|
|-----------------------3s5-|-----------------------3s5-|
|-0-0-0-3p0-0-0-0-3p0-0-----|-0-0-0-3p0-0-0-0-3p0-0-----|


  E S S S S E S S S S E S S   E S S S S E S S E E E
|---------------------------|------------------------|
|---------------------------|------------------------|
|-----------------------3s5-|------------------------|
|-0-0-0-3p0-0-0-0-3p0-0-----|-0-0-0-3p0-0-0---3-2-3--|


    E S S S S E S S S S E S S   E S S S S E S S S S E S S
||----------------------------|---------------------------|
||o---------------------------|---------------------------|
||o-----------------------3s5-|-----------------------3s5-|
||--0-0-0-3p0-0-0-0-3p0-0-----|-0-0-0-3p0-0-0-0-3p0-0-----|


  E S S S S E S S S S E S S   E S S S S E E E E E
|---------------------------|-----------------------||
|---------------------------|----------------------o||
|-----------------------3s5-|----------------------o||
|-0-0-0-3p0-0-0-0-3p0-0-----|-0-0-0-3p0-0-0-3-2-3---||


 Chorus
  E S S E S S E S S E S S   E S S E S S E S S E S S
|-------------------------|-------------------------|
|-------------------------|-------------------------|
|-5-5-5-5-5-5-5-5-5-5-5-5-|-7-7-7-7-7-7-7-7-7-7-7-7-|
|-------------------------|-------------------------|


  E S S E S S E S S E S S   S S S S S S S S S S S S S S S S
|-------------------------|------------------------------------|
|-------------------------|------------------------------------|
|-8-8-8-8-8-8-8-8-8-8-8-8-|-3-3-3-3-3-3-3-3-2-2-2-2-2-2-2-2----|
|-------------------------|------------------------------------|


  E S S E S S E S S E E   E S S E S S E E S S E
|-----------------------|-----------------------|
|---------7-7---7-7---8-|---------8-8-8-------7-|
|-5-5-5-5-----5-----5---|-7-7-7-7-------7-7-7---|
|-----------------------|-----------------------|


  E S S E   S  S  S  S S S S S E    S S S S S S S S S S S S S S S S
|---------------------------------|------------------------------------|
|---------/10-10-10-10-8-8-7-7-7\-|------------------------------------|
|-8-8-8-8-------------------------|-3-3-3-3-3-3-3-3-2-2-2-2-2-2-2-2----|
|---------------------------------|------------------------------------|


   Verse
    E E S S E E S S S S S S   E E S S E E S S S S S S
||--------------------------|-------------------------|
||o-------------------------|-------------------------|
||o---------------------3s5-|---------------------3s5-|
||--0-0-3p0-0---0-0-3p0-----|-0-0-3p0-0---0-0-3p0-----|


  E E S S E E S S S S S S   E E S S E E E E E
|-------------------------|---------------------||
|-------------------------|--------------------o||
|---------------------3s5-|--------------------o||
|-0-0-3p0-0---0-0-3p0-----|-0-0-3p0-0---3-2-3---||


    E S S S S E S S S S E S S   E S S S S E S S S S E S S
||----------------------------|---------------------------|
||o---------------------------|---------------------------|
||o-----------------------3s5-|-----------------------3s5-|
||--0-0-0-3p0-0-0-0-3p0-0-----|-0-0-0-3p0-0-0-0-3p0-0-----|


  E S S S S E S S S S E S S   E S S S S E E E E E   4x
|---------------------------|-----------------------||
|---------------------------|----------------------o||
|-----------------------3s5-|----------------------o||
|-0-0-0-3p0-0-0-0-3p0-0-----|-0-0-0-3p0-0-0-3-2-3---||


 Chorus
  E S S E S S E S S E S S   E S S E S S E S S E S S
|-------------------------|-------------------------|
|-------------------------|-------------------------|
|-5-5-5-5-5-5-5-5-5-5-5-5-|-7-7-7-7-7-7-7-7-7-7-7-7-|
|-------------------------|-------------------------|


  E S S E S S E S S E S S   S S S S S S S S S S S S S S S S
|-------------------------|------------------------------------|
|-------------------------|------------------------------------|
|-8-8-8-8-8-8-8-8-8-8-8-8-|-3-3-3-3-3-3-3-3-2-2-2-2-2-2-2-2----|
|-------------------------|------------------------------------|

[ Tab from: http://www.guitartabs.cc/tabs/p/panic_cell/away_from_here_btab.html ]
  E S S E S S E S S E E   E S S E S S E E S S E
|-----------------------|-----------------------|
|---------7-7---7-7---8-|---------8-8-8-------7-|
|-5-5-5-5-----5-----5---|-7-7-7-7-------7-7-7---|
|-----------------------|-----------------------|


  E S S E   S  S  S  S S S S S E    S S S S S S S S S S S S S S S S
|---------------------------------|---------------------------------|
|---------/10-10-10-10-8-8-7-7-7\-|---------------------------------|
|-8-8-8-8-------------------------|-3-3-3-3-3-3-3-3-2-2-2-2-2-2-2-2-|
|---------------------------------|---------------------------------|


    E S S S S E S S S S E S S   E S S S S E S S S S E S S
||----------------------------|---------------------------|
||o---------------------------|---------------------------|
||o-----------------------3s5-|-----------------------3s5-|
||--0-0-0-3p0-0-0-0-3p0-0-----|-0-0-0-3p0-0-0-0-3p0-0-----|


  E S S S S E S S S S E S S   E S S S S E E E E E
|---------------------------|-----------------------||
|---------------------------|----------------------o||
|-----------------------3s5-|----------------------o||
|-0-0-0-3p0-0-0-0-3p0-0-----|-0-0-0-3p0-0-0-3-2-3---||


   Verse
    E E S S E E S S S S S S   E E S S E E S S S S S S
||--------------------------|-------------------------|
||o-------------------------|-------------------------|
||o---------------------3s5-|---------------------3s5-|
||--0-0-3p0-0---0-0-3p0-----|-0-0-3p0-0---0-0-3p0-----|


  E E S S E E S S S S S S   E E S S E E E E E   5x
|-------------------------|---------------------||
|-------------------------|--------------------o||
|---------------------3s5-|--------------------o||
|-0-0-3p0-0---0-0-3p0-----|-0-0-3p0-0---3-2-3---||


    E S S S S E S S S S E S S   E S S S S E S S S S E S S
||----------------------------|---------------------------|
||o---------------------------|---------------------------|
||o-----------------------3s5-|-----------------------3s5-|
||--0-0-0-3p0-0-0-0-3p0-0-----|-0-0-0-3p0-0-0-0-3p0-0-----|


                                                     3/4
  E S S S S E S S S S E S S   E S S S S E E E E E     E E E E Q
|---------------------------|----------------------||--------------|
|---------------------------|---------------------o||--------------|
|-----------------------3s5-|---------------------o||--------------|
|-0-0-0-3p0-0-0-0-3p0-0-----|-0-0-0-3p0-0-0-3-2-3--||---3-2-3------|


   Chorus
   4/4
    E S S E S S E S S E S S   E S S E S S E S S E S S
||--------------------------|-------------------------|
||o-------------------------|-------------------------|
||o-5-5-5-5-5-5-5-5-5-5-5-5-|-7-7-7-7-7-7-7-7-7-7-7-7-|
||--------------------------|-------------------------|


  E S S E S S E S S E S S   S S S S S S S S S S S S S S S S
|-------------------------|----------------------------------|
|-------------------------|----------------------------------|
|-8-8-8-8-8-8-8-8-8-8-8-8-|-3-3-3-3-3-3-3-3-2-2-2-2-2-2-2-2--|
|-------------------------|----------------------------------|


  E S S E S S E S S E E   E S S E S S E E S S E
|-----------------------|-----------------------|
|---------7-7---7-7---8-|---------8-8-8-------7-|
|-5-5-5-5-----5-----5---|-7-7-7-7-------7-7-7---|
|-----------------------|-----------------------|


  E S S E   S  S  S  S S S S S E    S S S S S S S S S S S S S S S S
|---------------------------------|----------------------------------||
|---------/10-10-10-10-8-8-7-7-7\-|---------------------------------o||
|-8-8-8-8-------------------------|-3-3-3-3-3-3-3-3-2-2-2-2-2-2-2-2-o||
|---------------------------------|----------------------------------||


    E S S S S E S S S S E S S   E S S S S E S S S S E S S
||----------------------------|---------------------------|
||o---------------------------|---------------------------|
||o-----------------------3s5-|-----------------------3s5-|
||--0-0-0-3p0-0-0-0-3p0-0-----|-0-0-0-3p0-0-0-0-3p0-0-----|


  E S S S S E S S S S E S S   E S S S S E E E E E
|---------------------------|-----------------------||
|---------------------------|----------------------o||
|-----------------------3s5-|----------------------o||
|-0-0-0-3p0-0-0-0-3p0-0-----|-0-0-0-3p0-0-0-3-2-3---||


   Outro
    S S S S E S S S S E S S S S   S S S S E S S S S E E E  4x E E E E H
||------------------------------|--------------------------||--------------*|
||o-----------------------------|-------------------------o||--------------*|
||o-------------------------3s5-|-------------------------o||--------------*|
||--0-0-0-0-0-0-0-0-0-0-0-0-----|-0-0-0-0-0-0-0-0-0-3-2-3--||---3-2-3------*|
Comments