Pandas - Masturbation Is Not A Drink Chords & Tabs

 

Masturbation Is Not A Drink Chords & Tabs

Pandas Chords & Tabs

Version: 2 Type: Tab 0 ratings
1 star 2 stars 3 stars 4 stars 5 stars
comments

Masturbation Is Not A Drink Tab

this is the pandas i went to there practice but i will not tell my name
the guitar is pretty easy but they need some work there a good band.

-------------------------------------------------------|
-------------------------------------------------------|
(7)-(7)7-7-7-7-7-7-7-7-7-7-(5)-(5)-5-5-5-5-5-5-5-5-5-5-|
(7)-(7)7-7-7-7-7-7-7-7-7-7-(5)-(5)-5-5-5-5-5-5-5-5-5-5-|
(5)-(5)5-5-5-5-5-5-5-5-5-5-(3)-(3)-3-3-3-3-3-3-3-3-3-3-|
-------------------------------------------------------|
[ Tab from: http://www.guitartabs.cc/tabs/p/pandas/masturbation_is_not_a_drink_tab_ver_2.html ]
------------------------------------------------------|
------------------------------------------------------|
(3)-(3)-3-3-3-3-3-3-3-3-3-3---------------------------|
(3)-(3)-3-3-3-3-3-3-3-3-3-3---------------------------|
(1)-(1)-1-1-1-1-1-1-1-1-1-1---------------------------|repeat 3 times
------------------------------------------------------|
then after that go into
-------------------------------------------------------------------|
-------------------------------------------------------------------|
(11)-(11)11-11-11-11-11-11-11-11-11-11-(9)-(9)-9-9-9-9-9-9-9-9-9-9-|
(11)-(11)11-11-11-11-11-11-11-11-11-11-(9)-(9)-9-9-9-9-9-9-9-9-9-9-|
(9)--(9)-9--9--9--9--9--9--9--9--9--9--(7)-(7)-7-7-7-7-7-7-7-7-7-7-|
-------------------------------------------------------------------|
repeat hole thing have fun its pretty easy but fun
Comments