Panda - Y De La Gasolina Renacio El Amor Chords & Tabs

 

Y De La Gasolina Renacio El Amor Chords & Tabs

Panda Chords & Tabs

Version: 1 Type: Tab 0 ratings
1 star 2 stars 3 stars 4 stars 5 stars
comments

Y De La Gasolina Renacio El Amor Tab

   
Tabbed by: marioq
Email:lonely_guy91@hotmail.com

Tuning: 1/2 tono abajo (Eb,Ab,Db,Gb,Bb,Eb)
intro:
eb|-000--333--222222----------------------------------------------------------------------|
Bb|-333--333--333333----------------------------------------------------------------------|
Gb|-xxx--000--000000----------------------------------------------------------------------|
Db|-222--000--000000----------------------------------------------------------------------|
Ab|-222--222--xxxxxx----------------------------------------------------------------------|
Eb|-000--333--222222----------------------------------------------------------------------|
cont: mete la distor
e|---------------------------------------------------------------------------|
B|---------------------------------------------------------------------------|
G|---------------------22-2-2-4-5--------------------------------------------|
D|22-2-2-4-5-5-5-55-5--22-2-2-4-5--------------------------------------------|
A|22-2-2-4-5-5-5-55-5--00-0-0-2-3-------5----5-------------------------------|(x2)
E|00-0-0-2-3-3-3-33-3-------------0-2-3--2-3---------------------------------|
  ..   .     .   ..    ..   .     . . .  . . 
cont: entrada 
e|-0---0---0---0---0---------------------------------------------------------|
B|-3b5-3b5-3b5-3b5-3b5-------------------------------------------------------|
G|---------------------------------------------------------------------------|
D|---------------------------------------------------------------------------|
A|---------------------------------------------------------------------------|
E|---------------------------------------------------------------------------|
verso:
e|---------------------------------------------------------------------------|
B|---------------------------------------------------------------------------|
G|---------------------------------------------------------------------------|
D|22-2-2-4-5-5-5-55-5---4--7--4--5--4----------------------------------------|
A|22-2-2-4-5-5-5-55-5-55-55-55-55-55-----------------------------------------|
E|00-0-0-2-3-3-3-33-3--------------------------------------------------------|
  ..   .     .   ..   .. .. .. .. ..
[ Tab from: http://www.guitartabs.cc/tabs/p/panda/y_de_la_gasolina_renacio_el_amor_tab.html ]
pre coro: limpio
e|-0*--3--3p2--0*--3--3-3---2*------------------------------------------------------------|
B|-0*--3--3*---0*--3--3-3---3*------------------------------------------------------------|
G|-0*--0--2*-2-0*--0--0-0---2*------------------------------------------------------------|
D|-2*--0-----0-2*--0------0-0*------------------------------------------------------------|
A|-2*--2-------2*--2----------------------------------------------------------------------|
E|-0*--3-------0*--3----------------------------------------------------------------------|
(razones hay...)
coro:
e|---------------------------------------------------------------------------|
B|---------------------------------------------------------------------------|
G|55555--------777777-7/99-7-5-----------------------------------------------|
D|55555-55555--777777-7/99-7-5-----------------------------------------------|(x4)
A|33333-55555--555555-5/77-5-3-----------------------------------------------|
E|------33333----------------------------------------------------------------|
cont:
e|---------------------------------------------------------------------------|
B|---------------------------------------------------------------------------|
G|5555--------7777*----------------------------------------------------------|
D|5555-55555--7777*----------------------------------------------------------|
A|3333-55555--5555*----------------------------------------------------------|
E|-----33333-----------------------------------------------------------------|
(wooouuooh)

intro con distor (x1)
verso(x1)

precoro: cambia aki
e|---------------------------------------------------------------------------|
B|---------------------------------------------------------------------------|
G|------------0-0-0-------------0-0-0----------------------------------------|
D|--0----0---4-4-4-4--0----0---4-4-4-4---------------------------------------|
A|-2-2--2-2-5--------2-2--2-2-5----------------------------------------------|(x2)
E|0----3------------0----3---------------------------------------------------|

coro:
e|---------------------------------------------------------------------------|
B|---------------------------------------------------------------------------|
G|55555--------777777-7/99-7-5-----------------------------------------------|
D|55555-55555--777777-7/99-7-5-----------------------------------------------|(x4)
A|33333-55555--555555-5/77-5-3-----------------------------------------------|
E|------33333----------------------------------------------------------------|
cont:
e|---------------------------------------------------------------------------|
B|---------------------------------------------------------------------------|
G|5555--------7777*----------------------------------------------------------|
D|5555-55555--7777*----------------------------------------------------------|
A|3333-55555--5555*----------------------------------------------------------|
E|-----33333-----------------------------------------------------------------|
(wooouuooh)
cont: guitarra 2
e|---------------------------------------------------------------------------|
B|-12-10-12----12-10-12-10v--13-12-10--12-10-12----12-10-12-10v--------------|
G|---------12v---------------------------------12v---------------------------|
D|---------------------------------------------------------------------------|
A|---------------------------------------------------------------------------|
E|---------------------------------------------------------------------------|
Comments