Panda - Miercoles Chords & Tabs

 

Miercoles Chords & Tabs

Panda Chords & Tabs

Version: 1 Type: Tab 0 ratings
1 star 2 stars 3 stars 4 stars 5 stars
comments

Miercoles Tab

Esta tablatura tiene todo excepto el puente con guitarra acustica,hay disculpen pero
eske casi no se oyen las notas. 

Tabbed by: Mario Oscar
Email: x17_89@hotmail.com

Tuning: standard

 Versos sin distorcion y los rasgueos hacia arriba(ska):
e|-44-33-11-xx-44-33-11--------------------|
B|-44-44-11-44-44-44-11--------------------|
G|-55-55-22-55-55-55-22-99999999-----------|
D|-66-55-33-55-66-55-33-99999999-----------|
A|-66-33-33-xx-66-33-33-77777777-----------|
E|-44-33-11-33-44-33-11--------------------|

  Coda gtr 2 con distorcion:
e|---------------------------|
B|---------------------------|
G|-6666-5555-33-5-3----------|
D|-6666-5555-33-5-3-6--------|                                              
A|-4444-3333-11-3-1-6--------|
E|------------------4--------|

  Verso otra vez.
[ Tab from: http://www.guitartabs.cc/tabs/p/panda/miercoles_tab.html ]
  Coro x4:
e|----------------------------------|
B|----------------------------------|
G|-6666-5555-3333-------------------|
D|-6666-5555-3333-6666--------------|
A|-4444-3333-1111-6666--------------|
E|----------------4444--------------|

  Verso otra vez.
  Coro otra vez.

  Puente:
e|-----------------------------|
B|-----------------------------|
G|-----------------------------|
D|-33-xx-33-3/7777-33-33-3-2---|
A|-33-xx-33-3/7777-33-33-3-2---|
E|-11-xx-11-1/5555-11-11-1-0---|

 "Es miercoles..." x4                             
e|-------------------------|
B|-------------------------|
G|-6666-5555-3333----------|
D|-6666-5555-3333-6666-----|
A|-4444-3333-1111-6666-----|
E|----------------4444-----|

 Coro x4
 Primera parte del intervalo
 
 FIN:
e|-------------------|
B|-------------------|
G|-------------------|
D|-33-X-33-----------|
A|-33-X-33-----------|
E|-11-X-11-----------|
                                   Y ya.
Comments