Panda - Disculpa Los Malos Pensamientos Chords & Tabs

 

Disculpa Los Malos Pensamientos Chords & Tabs

Panda Chords & Tabs

Version: 1 Type: Tab 0 ratings
1 star 2 stars 3 stars 4 stars 5 stars
comments

Disculpa Los Malos Pensamientos Tab

Tabbed by: marioaq
Email:lonely_guy91@hotmail.com
[ Tab from: http://www.guitartabs.cc/tabs/p/panda/disculpa_los_malos_pensamientos_tab.html ]
Tuning: Drop D
intro/coro:
e|---------------------------------------------------------------------------|
B|11-11-11-10-11-15-15-15-13-15-13-11----------------------------------------|
G|x--x--x--x--x--x--x--x--x--x--x--x-----------------------------------------|(x3)
D|8--8--8--7--8-/12-12-12-10-12-10-8-----------------------------------------|
A|---------------------------------------------------------------------------|
D|---------------------------------------------------------------------------|
ultima vez:
e|---------------------------------------------------------------------------|
B|11-x-10-10-x-11-11-11-13-x-11x-10-10x-15-15-x-13--11-----------------------|
G|x--x-x--x--x-x--x--x--x--x-x-x-x--x-x-x--x--x-x---x------------------------|
D|8--x-7--7--x-8--8--8--10-x-8-x-7--7-x-12-12-x-10--8------------------------|
A|---------------------------------------------------------------------------|
D|---------------------------------------------------------------------------|
verso: lo hace la segunda guitarra
e|--------------------------------------------------------------------------------------------------|
B|--------------------------------------------------------------------------------------------------|
G|--------------------------------------------------------------------------------------------------|
D|--3--3-0-0-0h1-0--3--3-0-0-0h1-0-------------------------------------3--3-0-0-0h1-0---3--3--3--3--|
A|11-11-1-1-------11-11-1-1---------8--8-5-5-5h6-5---8--8-5-5-5h6-5---------------------------------|
D|--------------------------------55-55-5-5--------55-55-5-5--------11-11-1-1---------33-33-33-33---|
  .. .. . .       .. .. . .       .. .. . .        .. .. . .        .. .. . .         .. .. .. ..
enjuagaremos aquellas veces
coro: guitarra 2 toka intro
guitarra 1:
e|---------------------------|
B|---------------------------|
G|333333---------------------|
D|333333-55555-111111-33333--|
A|111111-55555-111111-33333--|
D|-------55555-111111-33333--|
break/verso 2:
e|--------------------------------------------------------------------------------------------------|
B|--------------------------------------------------------------------------------------------------|
G|--------------------------------------------------------------------------------------------------|
D|--3--3-0-0-0h1-0--3--3-0-0-0h1-0-------------------------------------3--3-0-0-0h1-0---3--3--3--3--|
A|11-11-1-1-------11-11-1-1---------8--8-5-5-5h6-5---8--8-5-5-5h6-5---------------------------------|
D|--------------------------------55-55-5-5--------55-55-5-5--------11-11-1-1---------33-33-33-33---|
  .. .. . .       .. .. . .       .. .. . .        .. .. . .        .. .. . .         .. .. .. ..
coro (x2)
bridge:
e|---------------------------------------------------------------------------|
B|---------------------------------------------------------------------------|
G|3-5-7-/3-3-5-7-7/8-7-5--8-7-5-3--------------------------------------------|
D|x-x-x--x-x-x-x-x-x-x-x--x-x-x-x--------------------------------------------|
A|1-3-5-/1-1-3-5-5/6-5-3--6-5-3-1--------------------------------------------|
E|---------------------------------------------------------------------------|
interlude de piano
e|--------------------|
B|--------------------|
G|33------------------|
D|33--555--111--3333--|
A|11--555--111--3333--|
E|----555--111--3333--|
  ..  ...  ...  ....
de rojo te vez bien
coro(x1)
Comments