Panda - Cita En El Quirofano Chords & Tabs

 

Cita En El Quirofano Chords & Tabs

Panda Chords & Tabs

Version: 1 Type: Tab 0 ratings
1 star 2 stars 3 stars 4 stars 5 stars
comments

Cita En El Quirofano Tab

Tabbed by: marioaq
Email:lonely_guy91@hotmail.com

Tuning: guitarra 1 standard
        guitarra 2 Drop D
intro:
e|-----------------------------------|
B|-----------------------------------|
G|-----------------------------------|
D|88888-88-88-88-88-888888-88-88-88--|
A|66666-66-66-66-66-666666-66-66-66--|
E|44444-44-44-44-44-444444-44-44-44--|
  .....             ......
cont:
e|---------------------------------------------------------------------------|
B|---------------------------------------------------------------------------|
G|---------------------------------------------------------------------------|
D|88888-88-88-88-88-888888-88-88-88--6666-66-66-66-66-6666-66-8888-8-8-------|
A|66666-66-66-66-66-666666-66-66-66--3333-33-33-33-33-4444-44-6666-6-6-------|
E|44444-44-44-44-44-444444-44-44-44------------------------------------------|
  .....             ......           ....             ....    ....
verso:
e|---------------------------------------------------------------------------|
B|---------------------------------------------------------------------------|
G|--------88888---------666-888----------------------------------------------|
D|666666--88888--33333--666-888----------------------------------------------|(x2)
A|666666--66666--33333--444-666----------------------------------------------|
E|444444---------11111-------------------------------------------------------|

e|---------------------------------------------------------------------------|
B|---------------------------------------------------------------------------|
G|--------88888---------666-888----------------------------------------------|(x2)
D|666666--88888--33333--666-888----------------------------------------------|
A|666666--66666--33333--444-666----------------------------------------------|
E|444444---------11111-------------------------------------------------------|
  ...... ...... ....... ... ...
coro:
guitarra 2
e|---------------------------------------------------------------------------|
B|---1---1---1----1---1---1----1---------------------------------------------|
G|--1-1-1-1-1-1--1-1-1-1-1-1--1-1--------------------------------------------|
D|---------------------------1-----------------------------------------------|(x2)
A|--------------3---3---4----------------------------------------------------|
D|-1---1---1-----------------------------------------------------------------|
[ Tab from: http://www.guitartabs.cc/tabs/p/panda/cita_en_el_quirofano_tab.html ]
intro(x1)
verso(x1)
coro:
guitarra 2
e|---------------------------------------------------------------------------|
B|---1---1---1----1---1---1----1---------------------------------------------|
G|--1-1-1-1-1-1--1-1-1-1-1-1--1-1--------------------------------------------|
D|---------------------------1-----------------------------------------------|
A|--------------3---3---4----------------------------------------------------|
D|-1---1---1-----------------------------------------------------------------|
tenemos una cita...
cont:
e|---------------------------------------------------------------------------|
B|---------------------------------------------------------------------------|
G|---------------------------------------------------------------------------|
D|88888-88-88-88-88-888888-88-88-88--6666-66-66-66-66-6666-66-8888-8-8-------|
A|66666-66-66-66-66-666666-66-66-66--3333-33-33-33-33-4444-44-6666-6-6-------|
E|44444-44-44-44-44-444444-44-44-44------------------------------------------|
  .....             ......           ....             ....    ....
me sacara el corazon
solo:
guitarra 1:
e|---------------------------------------------------------------------------|
B|---------------------------------------------------------------------------|
G|---------------------------------------------------------------------------|
D|6-6-6-6-6-6--8-8-8-8-8--6-6-6-6-6-6-6-6-6-6-6-6-6-6------------------------|
A|6-6-6-6-6-6--6-6-6-6-6--3-3-3-3-3-3-3-4-4-4-4-6-6-6------------------------|
E|4-4-4-4-4-4----------------------------------------------------------------|
guitarra 2
e|------------------------------11v---9h11-13v/15v-16v----15h16-18-16p15-16-----|
B|-------------------9-11-13-14-------------------------------------------------|
G|---------------8-10-----------------------------------------------------------|
D|---------6-8-10---------------------------------------------------------------|
A|------6-8---------------------------------------------------------------------|
D|6-8-10------------------------------------------------------------------------|

e|(t16)-13-(t16)-11-(t16)-9-(t16)-8-(t16)-6-(t16)-4---/13-/13-11v------------|
B|---------------------------------------------------------------------------|
G|---------------------------------------------------------------------------|
D|---------------------------------------------------------------------------|
A|---------------------------------------------------------------------------|
E|---------------------------------------------------------------------------|

e|---------------------------------------------------------------------------|
B|----------------------------------------------16b18-(17)-16b18-16----------|
G|-/17p15p11-----/17p15p11------/17p15p11------------------------------------|
D|----------15-11---------15p11----------15p11-------------------------------|
A|---------------------------------------------------------------------------|
E|---------------------------------------------------------------------------|
robame el dolor...
e|--------------------------------------------------------------16-----------14h16b18r16-16p14h16-18b20|
B|-18b19r18-16--16--------------------------------16v--16-18-20---20p18-16h18--------------------------|
G|------------17--17p15--15------------------15b17-----------------------------------------------------|
D|---------------------17--17p15--------15h17----------------------------------------------------------|
A|------------------------------13-15-17---------------------------------------------------------------|
E|-----------------------------------------------------------------------------------------------------|
coro(x1)
intro(x1)
outro:
e|------------------------------------------------------------------------------|
B|------------------------------------------------------------------------------|
G|-6----------------------------------------------------------------------------|
D|-6----------------------------------------------------------------------------|
A|-4----------------------------------------------------------------------------|
E|------------------------------------------------------------------------------|
ahi te va mi dolor
Comments