Panda - Cita En El Quirofano Chords & Tabs

 

Cita En El Quirofano Chords & Tabs

Panda Chords & Tabs

Version: 1 Type: Bass Tab

Cita En El Quirofano Bass Tab

this song is writen the way they play it
Emmanuel Mateos Ortiz  (emmanuelmo123@hotmail.com)
song :cita en el quirofano
artist: Panda
album: para ti con desprecio

intro
G|-------------------------------------------------------------|
D|-------------------------------------------------------------|
A|----------------66666-66-66-66-33333-33-33-33-44444-4666-666-|
E|-44444-44-44-44----------------------------------------------| x2

verso
G|------------------------------------|
D|------------------------------------|
A|----------66666666---------44446666-|
E|-44444444----------11111111---------| x3

precoro
G|--------------------------------------------------|
D|--------------------------------------------------|
A|----------66666666---------44446666-4444444-------|
E|-44444444----------11111111-----------------4-4-4-|

verso
G|-----------------------------|
D|-----------------------------|
A|----------66~66~33~33~44~66~-|
E|-1/44~44~--------------------|

tokar intro
tokar verso
tokar prechoro
tokar intro (esto es en el segundo coro)
[ Tab from: http://www.guitartabs.cc/tabs/p/panda/cita_en_el_quirofano_btab.html ]
solo d guitarra
G|-----------------------------------------------------------------|
D|-----------------------------------------------------------------|
A|-----------------6-6-6-6-6-6-6-6-3-3-3-3-3-3-3-3-4-4-4-4-6-6-6-6-|
E|-4-4-4-4-4-4-4-4-------------------------------------------------|

"robame el dolor...."
G|--------------------------------------------------|
D|--------------------------------------------------|
A|-44444444-66666666--------------------44444444-6~-|
E|-------------------4444-3333-11111111-------------|

coro
G|--------------------------------------|
D|--------------------------------------|
A|----------66666666-33333333-4444-6666-|
E|-44444444-----------------------------|

G|-------------------------------------------|
D|-------------------------------------------|
A|----------66666666-33333333-4444-666-666---|
E|-44444444----------------------------------|

outro
G|---------------------------------------------------------|
D|---------------------------------------------------------|
A|----------------66666-66-66-66-33333-33-33-33-4~-6~-4~---|
E|-44444-44-44-44------------------------------------------|