Panda - 31 Chords & Tabs

 

31 Chords & Tabs

Panda Chords & Tabs

Version: 2 Type: Tab 0 ratings
1 star 2 stars 3 stars 4 stars 5 stars
comments

31 Tab

   
----------------------------------------------------------------------------
			     SONG NAME - Band Name
----------------------------------------------------------------------------
Tabbed by: zElEka
Email:carolinazatarain_3@hotmail.com

Tuning: Eb

La primera parte son puros armonicos.
The first part is with harmonics.

eb|-------------------------------------------------------------------------|
Bb|-------------------------------------------------------------------------|
Gb|-------------------5+----------------------------------------------------|
Db|-12+----7+----5+---------9+-----5+--------------------------------X4-----|
Ab|-------------------------------------------------------------------------|
Eb|-------------------------------------------------------------------------|
[ Tab from: http://www.guitartabs.cc/tabs/p/panda/31_tab_ver_2.html ]
eb|--------------------------------------------------------------------------|
Bb|---------5-----------5---7--7^-7---5--------------------5-----------------|
Gb|--5/7~------7----7---------------------7---7---4---7-------7--------------|
Db|--------------------------------------------------------------------------|
Ab|--------------------------------------------------------------------------|
Eb|--------------------------------------------------------------------------|

eb|------------------------------7---5------------------10--9--10------------|
Bb|-----5---7---7^---7---5--------------8---7^--7---5------------------------|
Gb|--7-----------------------7-----------------------------------------------|
Db|--------------------------------------------------------------------------|
Ab|--------------------------------------------------------------------------|
Eb|--------------------------------------------------------------------------|

eb|-12--10--9---------------------------------------------------------------|
Bb|-------------12--10--9---------------------------------------------------|
Gb|-----------------------9---7---------------------------------------------|
Db|-------------------------------------------------------------------------|
Ab|-------------------------------------------------------------------------|
Eb|-------------------------------------------------------------------------|
Comments