Pain In The Ass - Sold Ass Chords & Tabs

 

Sold Ass Chords & Tabs

Pain In The Ass Chords & Tabs

Version: 1 Type: Tab 0 ratings
1 star 2 stars 3 stars 4 stars 5 stars
comments

Sold Ass Tab

pain in the ass,sold ass.
Tabbed by masterreen98@aol.com.
  
visit:                www.surgeweb.de
Pain in the Ass
Pain in the ass
tune your guitar down 1/2 step

Intro
--------

        Eb|--------------------------------------------------------------------|
        Hb|--------------------------------------------------------------------|
        Gb|--7~----------------------------------------------------------------|
        Db|--------------------------------------------------------------------|
        Ab|--------------------------------------------------------------------|
        Eb|--------------------------------------------------------------------|

        let ring throughout!

[ Tab from: http://www.guitartabs.cc/tabs/p/pain_in_the_ass/sold_ass_tab.html ]
Vers:
----------
                
        Eb|-----------------------------------------------------------------------|
        Hb|-----------------------------------------------------------------------|
        Gb|-----------------------------------------------------------------------|
        Db|--7-7------------------------------------------------------------------|
        Ab|--5-5-8-8/7-7-5--5-5-5/8-8-7-7-----------------------------------------|
        Eb|------6-6/5-5-3--3-3-3/6-6-5-5-----------------------------------------|
        


chorus:
---------

        Eb|--------------------------------------------------------------------|
        Hb|--------------------------------------------------------------------|
        Gb|--------------------------------------------------------------------|
        Db|--7-----------------------------------------------------------------|
        Ab|--5----8----5----7--------------------------------------------------|
        Eb|-------6----3----5--------------------------------------------------|


Outro
--------
        Eb|--------------------------------------------------------------------|
        Hb|--------------------------------------------------------------------|
        Gb|--------------------------------------------------------------------|
        Db|-7-7-7-7-8-8-8-8-9-9-9-9-7-7-7-7-7-7-7-7-5-5-5-5--------------------|
        Ab|-5-5-5-5-6-6-6-6-7-7-7-7-5-5-5-5-5-5-5-5-3-3-3-3--------------------|
        Eb|--------------------------------------------------------------------| 
:: Ultimate Guitar Archive :: 
http://www.ultimate-guitar.com 

Comments