Paige - O.m.g Chords & Tabs

 

O.m.g Chords & Tabs

Paige Chords & Tabs

Version: 1 Type: Tab 0 ratings
1 star 2 stars 3 stars 4 stars 5 stars
comments

O.m.g Tab

Intro x4 - oh my god this must be wrong...
e|------------------|-----------------|-----------------|-----------------|
b|------------------|-----------------|-----------------|-4-4-4-4-4-4-4-4-|
g|-2-2-2-2-2-2-2-2--|-4-4-4-4-4-4-4-4-|-6-6-6-6-6-6-6-6-|-5-5-5-5-5-5-5-5-|
d|-3-3-3-3-3-3-3-3--|-5-5-5-5-5-5-5-5-|-7-7-7-7-7-7-7-7-|-5-5-5-5-5-5-5-5-|
a|-3-3-3-3-3-3-3-3--|-5-5-5-5-5-5-5-5-|-7-7-7-7-7-7-7-7-|-3-3-3-3-3-3-3-3-|
e|-1-1-1-1-1-1-1-1--|-3-3-3-3-3-3-3-3-|-5-5-5-5-5-5-5-5-|-----------------|

Verse 1 - tell me how...
e|------------------|-----------------|
b|------------------|-----------------|
g|-2-2-2-----2-2-2--|-6-6-----6-6-----|
d|-3-3-3-----3-3-3--|-7-7-----7-7-----|
a|-3-3-3-----3-3-3--|-7-7-----7-7-----|
e|-1-1-1-----1-1-1--|-5-5-----5-5-----|

First Bridge
e|------------------|-----------------|
b|------------------|-----------------|
g|-2-2-6-4-4-4-4-4--|-6-6-------------|
d|-3-3-7-5-5-5-5-5--|-7-7-------------|
a|-3-3-7-5-5-5-5-5--|-7-7-------------|
e|-1-1-5-3-3-3-3-3--|-5-5-------------|

Chorus x4 - Breakaway from here...
e|------------------|-----------------|-----------------|-----------------|
b|------------------|-----------------|-----------------|-4-4-4-4-4-4-4-4-|
g|-2-2-2-2-2-2-2-2--|-4-4-4-4-4-4-4-4-|-6-6-6-6-6-6-6-6-|-5-5-5-5-5-5-5-5-|
d|-3-3-3-3-3-3-3-3--|-5-5-5-5-5-5-5-5-|-7-7-7-7-7-7-7-7-|-5-5-5-5-5-5-5-5-|
a|-3-3-3-3-3-3-3-3--|-5-5-5-5-5-5-5-5-|-7-7-7-7-7-7-7-7-|-3-3-3-3-3-3-3-3-|
e|-1-1-1-1-1-1-1-1--|-3-3-3-3-3-3-3-3-|-5-5-5-5-5-5-5-5-|-----------------|

After 1st Chorus
e|------------------|
b|------------------|
g|-2-2-2------------|
d|-3-3-3-----2-2-2--|
a|-3-3-3-----3-3-3--|
e|-1-1-1-----1-1-1--|


Verse 2 = No guitar - Oh my god this must...

[ Tab from: http://www.guitartabs.cc/tabs/p/paige/omg_tab.html ]
Second Bridge
e|------------------|-----------------|
b|------------------|-----------------|
g|-5-5-9-7-7-7-7-7--|-9-9-------------|
d|------------------|-----------------|
a|-3-3-7-5-5-5-5-5--|-7-7-------------|
e|------------------|-----------------|

Chorus x4 - Breakaway from here...
e|------------------|-----------------|-----------------|-----------------|
b|------------------|-----------------|-----------------|-4-4-4-4-4-4-4-4-|
g|-2-2-2-2-2-2-2-2--|-4-4-4-4-4-4-4-4-|-6-6-6-6-6-6-6-6-|-5-5-5-5-5-5-5-5-|
d|-3-3-3-3-3-3-3-3--|-5-5-5-5-5-5-5-5-|-7-7-7-7-7-7-7-7-|-5-5-5-5-5-5-5-5-|
a|-3-3-3-3-3-3-3-3--|-5-5-5-5-5-5-5-5-|-7-7-7-7-7-7-7-7-|-3-3-3-3-3-3-3-3-|
e|-1-1-1-1-1-1-1-1--|-3-3-3-3-3-3-3-3-|-5-5-5-5-5-5-5-5-|-----------------|

Middle
e|------------------|
b|------------------|
g|-2----------------|
d|-3----------------|
a|-3----------------|
e|-1----------------|

Middle x2
e|------------------|-----------------|
b|------------------|-----------------|
g|------------------|-----------------|
d|------------------|-----------------|
a|------------------|-----------------|
e|-1-1-1-1-1-1-1-1--|-5-5-5-5-5-5-5-5-|

Middle (Heavier) x2
e|------------------|-----------------|-----------------|-----------------|
b|------------------|-----------------|-----------------|-4-4-4-4-4-4-4-4-|
g|-2-2-2-2-2-2-2-2--|-4-4-4-4-4-4-4-4-|-6-6-6-6-6-6-6-6-|-5-5-5-5-5-5-5-5-|
d|-3-3-3-3-3-3-3-3--|-5-5-5-5-5-5-5-5-|-7-7-7-7-7-7-7-7-|-5-5-5-5-5-5-5-5-|
a|-3-3-3-3-3-3-3-3--|-5-5-5-5-5-5-5-5-|-7-7-7-7-7-7-7-7-|-3-3-3-3-3-3-3-3-|
e|-1-1-1-1-1-1-1-1--|-3-3-3-3-3-3-3-3-|-5-5-5-5-5-5-5-5-|-----------------|


Chorus x2 - Dont stop now, we're running...
e|------------------|-----------------|-----------------|-----------------|
b|------------------|-----------------|-----------------|-4-4-4-4-4-4-4-4-|
g|-2-2-2-2-2-2-2-2--|-4-4-4-4-4-4-4-4-|-6-6-6-6-6-6-6-6-|-5-5-5-5-5-5-5-5-|
d|-3-3-3-3-3-3-3-3--|-5-5-5-5-5-5-5-5-|-7-7-7-7-7-7-7-7-|-5-5-5-5-5-5-5-5-|
a|-3-3-3-3-3-3-3-3--|-5-5-5-5-5-5-5-5-|-7-7-7-7-7-7-7-7-|-3-3-3-3-3-3-3-3-|
e|-1-1-1-1-1-1-1-1--|-3-3-3-3-3-3-3-3-|-5-5-5-5-5-5-5-5-|-----------------|
Comments