Padi - Ketakjuban Chords & Tabs

 

Ketakjuban Chords & Tabs

Padi Chords & Tabs

Version: 1 Type: Tab 0 ratings
1 star 2 stars 3 stars 4 stars 5 stars
comments

Ketakjuban Tab

   
Artis     : Padi
Judul     : ketakjuban
Album     : Save Our Soul
Tabbed by : Sigit A 

intro:   G              F#                F
|---------------------------|---------------------------|
|---------------------------|---------------------------|
|--1/2----------------------|---------------------------|
|---------------------------|---------------------------|
|---------------------------|---------------------------|
|-------33323332333233332221|222122212222111011101110111|

  C    D
|---|----|---------------------|
|---|----|---------7---9~~p7---|
|---|----|-----7-----7-------7-|
|---|----|--7h9--9-------------|
|---|----|---------------------|
|---|----|---------------------|


|------------|--------------|--------------------|
|--------7---|--------*7----|--------7---9~~p7---|
|----7-----7-|----7------*7-|----7-----7-------7-|
|-7h9--9-----|-7h9--9-------|-7h9--9-------------|
|------------|--------------|--------------------|
|------------|--------------|--------------------|

guitar 1
   A    C      A     C     D
|----|-----|-----|-----|------|
|----|-----|-----|-----|------|
|----|-----|-----|-----|------|
|----|-----|-----|-----|------|
|----|-----|-----|-----|------|
|----|-----|-----|-----|------|

guitar 2 dimulai dari chor A

                                                          2X
|---------------------12/15151515--------------------------|
|-121212/151515-121212-------------121212/1515p1312\10/1212|
|----------------------------------------------------------|
|----------------------------------------------------------|
|----------------------------------------------------------|
|----------------------------------------------------------|
[ Tab from: http://www.guitartabs.cc/tabs/p/padi/ketakjuban_tab.html ]
reff
   G    F#     F      C     D     2X
|-----|-----|-----|------|-----|
|-----|-----|-----|------|-----|
|-----|-----|-----|------|-----|
|-----|-----|-----|------|-----|
|-----|-----|-----|------|-----|
|-----|-----|-----|------|-----|

|------------|--------------|--------------------|
|--------7---|--------*7----|--------7---9~~p7---|
|----7-----7-|----7------*7-|----7-----7-------7-|
|-7h9--9-----|-7h9--9-------|-7h9--9-------------|
|------------|--------------|--------------------|
|------------|--------------|--------------------|

reff
   G    F#     F      C     D     2X
|-----|-----|-----|------|-----|
|-----|-----|-----|------|-----|
|-----|-----|-----|------|-----|
|-----|-----|-----|------|-----|
|-----|-----|-----|------|-----|
|-----|-----|-----|------|-----|

guitar solo                                 C
|----------------------------------------------|
|----------------------------------------------|
|-----------------------5p0-----------------5-5|
|------------2----2--3-------3--2--0--------5-5|
|-------2--3----3---------------------3--2--3-3|
|--3--3----------------------------------------|


           A              4X
|--------------------------|---------------------------------|
|--------------------------|---------------------------------|
|----------22--------------|----------------5p0-----------5-5|
|----------22--------------|--------2---2-3-----3-2-0-----5-5|
|-3--2--1--00---3--2--0----|---2--3---3---------------3-2-3-3|
|-----------------------3--|-3-------------------------------|


|------------------------------------------|
|------------------------------------------|
|-------2-2-------2-2-------2-2-------2-2--|
|-------2-2-------2-2-------2-2-------2-2--|
|-3-2-1-0-0-3-2-1-0-0-3-2-1-0-0-3-2-1-0-0--|
|------------------------------------------|



reff
   G    F#     F      C     D     2X
|-----|-----|-----|------|-----|
|-----|-----|-----|------|-----|
|-----|-----|-----|------|-----|
|-----|-----|-----|------|-----|
|-----|-----|-----|------|-----|
|-----|-----|-----|------|-----|

-end of tab.
Comments