Padi - Kasih Tak Sampai Chords & Tabs

 

Kasih Tak Sampai Chords & Tabs

Padi Chords & Tabs

Version: 1 Type: Tab 0 ratings
1 star 2 stars 3 stars 4 stars 5 stars
comments

Kasih Tak Sampai Tab

   
Judul : Kasih Tak Sampai
Artis : Padi
Album : Sesuatu Yang Tertunda
Tab by: Edy zuraidy

Tab
Intro
   D                D7                G
1|---2---2---2---2----2---2---2---2-----3---3---3---3---
2|---3---3---3---3----1---1---1---1-----3---3---3---3---
3|-2---2---2---2----2---2---2---2-----0---0---0---0-----

   A                  Bm       F#m      E
1|---0---0---0---0-----2---2-----2--2-------------0-
2|---2---2---2---2-----3---3-----2--2-----------0---
3|-2---2---2---2------4---4----2---2----------1-----
4|------------------------------------------2-------
5|----------------------------------------2---------
6|--------------------------------------0-----------

   G                A         A7
1|---3---3---3---3--0-------0-3----||
2|---3---3---3---3--------2---2----||
3|-0---0---0---0--------2-----2----||
4|--------------------2------------||
5|------------------0--------------||
6|---------------------------------||

Bait 1 (verse 1)

   D                D7                G
1|---2---2---2---2----2---2---2---2-----3---3---3---3--
2|---3---3---3---3----1---1---1---1-----3---3---3---3--
3|-2---2---2---2----2---2---2---2-----0---0---0---0----

   A                  Bm       F#m      E
1|---0---0---0---0-----2---2-----2--2-----0---0---0----0---
2|---2---2---2---2-----3---3-----2--2-----0---0---0---0----
3|-2---2---2---2------4---4----2---2----1---1---1---1------

   G                A         A7
1|---3---3---3---3--0-------0-3----
2|---3---3---3---3--------2---2----
3|-0---0---0---0--------2-----2----
4|--------------------2------------
5|------------------0--------------



Bait 2 (verse 2)
   D                D7                G
1|---2---2---2---2----2---2---2---2-----3---3---3---3--
2|---3---3---3---3----1---1---1---1-----3---3---3---3--
3|-2---2---2---2----2---2---2---2-----0---0---0---0----

   A                  Bm       F#m      E
1|---0---0---0---0-----2---2-----2--2-----0---0---
2|---2---2---2---2-----3---3-----2--2-----0---0---
3|-2---2---2---2------4---4----2---2----1---1-----

   G                A
1|---3---3---3---3----------0----
2|---3---3---3---3-------2-------
3|-0---0---0---0------2----------
4|------------------2------------

Reff
   D                D7                G
1|---2---2---2---2----2---2---2---2-----3---3---3---3---
2|---3---3---3---3----1---1---1---1-----3---3---3---3---
3|-2---2---2---2----2---2---2---2-----0---0---0---0-----

   A
1|---0---0---0---0--
2|---2---2---2---2-- x3
3|-2---2---2---2----
4|------------------

Bait 3 (verse 3)

   D                D7                G
1|---2---2---2---2----2---2---2---2-----3---3---3---3--
2|---3---3---3---3----1---1---1---1-----3---3---3---3--
3|-2---2---2---2----2---2---2---2-----0---0---0---0----
[ Tab from: http://www.guitartabs.cc/tabs/p/padi/kasih_tak_sampai_tab.html ]
   A                  Bm       F#m      E
1|---0---0---0---0-----2---2-----2--2-------0----
2|---2---2---2---2-----3---3-----2--2-----0------
3|-2---2---2---2------4---4----2---2----1--------

   G                A
1|---3---3---3---3------0---0---0--0
2|---3---3---3---3------2---2---2--2
3|-0---0---0---0------2---2---2----2
4|----------------------------------

Reff

   D
1|---2---2--
2|--3-3-3-3-  ---> mainkan ini sampai kata 'di langit'
3|-2---2----
   G
1|---3---3--
2|--3-3-3-3- ---> mainkan ini sampai kata 'abadi'
3|-0---0----

Kemudian ulang lagi yg D sampai kata 'ini' dan mainkan G sampai kata 
'kita'

   D                D7                G
1|---2---2---2---2----2---2---2---2-----3---3---3---3---
2|---3---3---3---3----1---1---1---1-----3---3---3---3---
3|-2---2---2---2----2---2---2---2-----0---0---0---0-----

   A
1|---0---0---0---0--
2|---2---2---2---2--
3|-2---2---2---2----
4|------------------

o....oh....oh
   D                D7                G
1|---2---2---2---2----2---2---2---2-----3---3---3---3---
2|---3---3---3---3----1---1---1---1-----3---3---3---3---
3|-2---2---2---2----2---2---2---2-----0---0---0---0-----

   A
1|---0---0---0---0--
2|---2---2---2---2-- x2
3|-2---2---2---2----
4|------------------

   O.....oooohh....ohhh
   D
1|---2---2--
2|--3-3-3-3-
3|-2---2----

   O...... ohhhhh......ohhhhhh
   G
1|---3---3--
2|--3-3-3-3-
3|-0---0----

   Menjadi saksi kita berdua
   D
1|---2---2--
2|--3-3-3-3- --> mainkan terus sampai kata'berdua'
3|-2---2----

Kira-kira lagu ini kalo di mainkan di gitar seperti Tab yang
ada diatas. Mohon perbaikannya kalo kurang baik.

Intro : D  D7  G  A
        Bm  F#m  E  G  A A7

  D           D7
Indah .. terasa indah
G                     A
Bila kita terbuai dalam alunan cinta
Bm               F#m       E
Sedapat mungkin terciptakan rasa
G                 A    A7
Keinginan saling memiliki

   D           D7
Namun bila itu semua
        G                   A
Dapat terwujud dalam satu ikatan cinta
   Bm         F#m         E
Tak semudah seperti yang terbayang
   G               A
Menyatukan perasaan kita ...

Reff #
  D                        D7
Tetaplah menjadi bintang di langit
G                   A
Agar cinta kita akan abadi
D                      D7
Biarlah sinarmu tetap menyinari alam ini
G                    A
Agar menjadi saksi cinta kita
D   D7     G   A
berdua ... berdua ...

D               D7
Sudah .. terlambat sudah
  G               A
Kini semua harus berakhir
Bm                F#m        E
Mungkin inilah jalan yang terbaik
G                      A
Dan kita mesti relakan kenyataan .. ini

A          G        D
Menjadi saksi kita berdua ...


- end Of tab.


Comments