Padi - Begitu Indah Chords & Tabs

 

Begitu Indah Chords & Tabs

Padi Chords & Tabs

Version: 2 Type: Tab 0 ratings
1 star 2 stars 3 stars 4 stars 5 stars
comments

Begitu Indah Tab

   
Song    : Begitu Indah
Album   : Lain Dunia

This song is the first Padi’s single.

Note: This tab is the way I play the song, not personnel’s way.
-----------------------------------------------------------------------------------

Intro:

Ari plays his solo rhythm:
E|-7-x-7-x-x-7-x-7-x-x-7-7-x-x-7-x-7-x-x-7-x-7-x-x-7-7-x-x-|
B|-7-x-7-x-x-7-x-7-x-x-7-7-x-x-7-x-7-x-x-7-x-7-x-x-7-7-x-x-|
G|-9-x-9-x-x-9-x-9-x-x-9-9-x-x-9-x-9-x-x-9-x-9-x-x-9-9-x-x-|
D|-9-x-9-x-x-9-x-9-x-x-9-9-x-x-9-x-9-x-x-9-x-9-x-x-9-9-x-x-|
A|-7-x-7-x-x-7-x-7-x-x-7-7-x-x-7-x-7-x-x-7-x-7-x-x-7-7-x-x-|
E|---------------------------------------------------------|

E|-4-x-4-x-x-4-x-4-x-x-4-4-x-x-4-x-4-x-x-4-x-4-x-x-4-4-x-x-|
B|-5-x-5-x-x-5-x-5-x-x-5-5-x-x-5-x-5-x-x-5-x-5-x-x-5-5-x-x-|
G|-6-x-6-x-x-6-x-6-x-x-6-6-x-x-6-x-6-x-x-6-x-6-x-x-6-6-x-x-|
D|-6-x-6-x-x-6-x-6-x-x-6-6-x-x-6-x-6-x-x-6-x-6-x-x-6-6-x-x-|
A|-4-x-4-x-x-4-x-4-x-x-4-4-x-x-4-x-4-x-x-4-x-4-x-x-4-4-x-x-|
E|---------------------------------------------------------|

All personnel play their instruments, except Fadly.
-       Ari plays rhythm as above tab.
-       Yoyo plays very cool drum pattern.
-       Rindra plays his bass line.
-       Piyu plays some melody in this intro parts.

E|----------------------------4-2-4~-|
B|---5-4-5~~----5/7-5-7-5------------|
G|-4----------------------/4~--------|
D|-----------------------------------| Piyu plays it 2x.
A|-----------------------------------|
E|-----------------------------------|

In this part, Fadly sings:

Bila Cinta menggugah rasa.
Begitu indah mengukir hatiku.
Menyentuh jiwaku, hapuskan semua gelisah.

Piyu plays some effect through his Gibson.
Ari still plays his clean rhythm:
E|-7-x-7-x-x-7-x-7-x-x-7-7-x-x-7-x-7-x-x-7-x-7-x-x-7-7-x-x-|
B|-7-x-7-x-x-7-x-7-x-x-7-7-x-x-7-x-7-x-x-7-x-7-x-x-7-7-x-x-|
G|-9-x-9-x-x-9-x-9-x-x-9-9-x-x-9-x-9-x-x-9-x-9-x-x-9-9-x-x-|
D|-9-x-9-x-x-9-x-9-x-x-9-9-x-x-9-x-9-x-x-9-x-9-x-x-9-9-x-x-|
A|-7-x-7-x-x-7-x-7-x-x-7-7-x-x-7-x-7-x-x-7-x-7-x-x-7-7-x-x-|
E|---------------------------------------------------------|

E|-4-x-4-x-x-4-x-4-x-x-4-4-x-x-4-x-4-x-x-4-x-4-x-x-4-4-x-x-|
B|-5-x-5-x-x-5-x-5-x-x-5-5-x-x-5-x-5-x-x-5-x-5-x-x-5-5-x-x-|
G|-6-x-6-x-x-6-x-6-x-x-6-6-x-x-6-x-6-x-x-6-x-6-x-x-6-6-x-x-|
D|-6-x-6-x-x-6-x-6-x-x-6-6-x-x-6-x-6-x-x-6-x-6-x-x-6-6-x-x-|
A|-4-x-4-x-x-4-x-4-x-x-4-4-x-x-4-x-4-x-x-4-x-4-x-x-4-4-x-x-|
E|---------------------------------------------------------|

E|-5-x-5-x-x-5-x-5-x-x-5-5-x-x-5-x-5-x-x-5-x-5-x-x-5-5-x-x-|
B|-5-x-5-x-x-5-x-5-x-x-5-5-x-x-5-x-5-x-x-5-x-5-x-x-5-5-x-x-|
G|-6-x-6-x-x-6-x-6-x-x-6-6-x-x-6-x-6-x-x-6-x-6-x-x-6-6-x-x-|
D|-7-x-7-x-x-7-x-7-x-x-7-7-x-x-7-x-7-x-x-7-x-7-x-x-7-7-x-x-|
A|-7-x-7-x-x-7-x-7-x-x-7-7-x-x-7-x-7-x-x-7-x-7-x-x-7-7-x-x-|
E|---------------------------------------------------------|
 
Intro for 1x, then Fadly sings for the second part.

Duhai cintaku, duhai pujaanku.
Datang padaku, dekat di sampingku.
Kuingin hidupku selalu dalam peluknya.

An half intro in E.
Ari Plays:
E|-7-x-7-x-x-7-x-7-x-x-7-7-x-x-7-x-7-x-x-7-x-7-x-x-7-7-x-x-|
B|-7-x-7-x-x-7-x-7-x-x-7-7-x-x-7-x-7-x-x-7-x-7-x-x-7-7-x-x-|
G|-9-x-9-x-x-9-x-9-x-x-9-9-x-x-9-x-9-x-x-9-x-9-x-x-9-9-x-x-|
D|-9-x-9-x-x-9-x-9-x-x-9-9-x-x-9-x-9-x-x-9-x-9-x-x-9-9-x-x-|
A|-7-x-7-x-x-7-x-7-x-x-7-7-x-x-7-x-7-x-x-7-x-7-x-x-7-7-x-x-|
E|---------------------------------------------------------|

Piyu Plays:
E|-----------------|
B|---5-4-5~~---5/7-|
G|-4---------------|
D|-----------------|
A|-----------------|
E|-----------------|

Reff:
Terang saja aku menantinya.
Terang saja aku mendambanya.
Terang saja aku merindunya.
Karena dia, karena dia begitu indah.

Ari plays:
E|-2-x-2-x-x-2-x-2-x-x-2-2-2-2-0-x-0-x-x-0-x-0-x-x-0-0-0-0-|
B|-2-x-2-x-x-2-x-2-x-x-2-2-2-2-2-x-2-x-x-2-x-2-x-x-2-2-2-2-|
G|-4-x-4-x-x-4-x-4-x-x-4-4-4-4-2-x-2-x-x-2-x-2-x-x-2-2-2-2-|   3x
D|-4-x-4-x-x-4-x-4-x-x-4-4-4-4-2-x-2-x-x-2-x-2-x-x-2-2-2-2-|
A|-2-x-2-x-x-2-x-2-x-x-2-2-2-2-0-x-0-x-x-0-x-0-x-x-0-0-0-0-|
E|---------------------------------------------------------|

E|-2-x-2-x-x-2-x-2-x-x-2-2-2-2-0-|
B|-2-x-2-x-x-2-x-2-x-x-2-2-2-2-2-|
G|-4-x-4-x-x-4-x-4-x-x-4-4-4-4-2-|
D|-4-x-4-x-x-4-x-4-x-x-4-4-4-4-2-|
A|-2-x-2-x-x-2-x-2-x-x-2-2-2-2-0-|
E|-------------------------------|
[ Tab from: http://www.guitartabs.cc/tabs/p/padi/begitu_indah_tab_ver_2.html ]
Piyu plays:
E|----------------|--------------|----------------|-----7p5-5-|
B|-------------/7-|-----------/7-|-------------/9-|-7~--------|
G|-8-6-6-8-8/9----|-8-6-6-8-6----|-8-6-6-8-8/9----|-----------|
D|----------------|--------------|----------------|-----------|
A|----------------|--------------|----------------|-----------|
E|----------------|--------------|----------------|-----------|
All instruments stopped.

Intro 2x.
There is an addition instrument in this intro part. I thought it was some guitar voice. 
Here are it is:
E|---------------------------------|
B|---------------------------------|
G|---------------------------------|
D|---------------------------------|
A|-7-9-11-12-11-9-|-4-9-11-12-11-9-| played as long as intro played.
E|---------------------------------|

 
Duhai cintaku, pujaan hatiku.
Peluk diriku, dekaplah jiwaku.

There’s only one guitar played in this part, and it was piyu:
E|-------4-7-4--------4-7-4-|---------4------------4---|
B|---5-7----------5-7-------|-----4-5---5------4-5---5-|
G|-4------------4-----------|---6------------6---------|
D|--------------------------|-6------------6-----------|
A|--------------------------|--------------------------|
E|--------------------------|--------------------------|

Bawa ragaku melayang memeluk bintang.

Ari plays chord with some distortion voice in this part:
E|-------------|---|
B|-------------|---|
G|-2-----x-x-2-|---|
D|-2-----x-x-2-|-2-|
A|-0-----x-x-0-|-2-|
E|-------------|-0-|

And piyu continues playing his tremolo:
E|----------------------|-------4-7-4--------4-7-4-|
B|-------5----------5---|---5-7----------5-7-------|
G|-----6---6------6---6-|-4------------4-----------|
D|---7----------7-------|--------------------------|
A|-0----------0---------|--------------------------|
E|----------------------|--------------------------|

Reff:
Ari plays same as the first reff.
Piyu plays two patterns of fill.
Pattern 1:
E|---------------------|
B|---------------------|
G|-9-8-9-8-9-8-9-8-----|   3x
D|-----------------9~~-|
A|---------------------|
E|---------------------|

E|----------------|
B|----------------|
G|-9-8-9-8~-/6-4~-|
D|----------------|
A|----------------|
E|----------------|

Pattern 2:
E|-16-14-16-14-16-14-16-14------|
B|-------------------------16~~-|
G|------------------------------|   3x
D|------------------------------|
A|------------------------------|
E|------------------------------|

E|-16-14-16-14~-/12-12-|
B|---------------------|
G|---------------------|
D|---------------------|
A|---------------------|
E|---------------------|

All instruments stopped.

Nanananananananana…
Interlude in E A, but Ari continues playing in E.

 
Reff.
Ari and Piyu both, play the same chord with different distortion.
E|---|---|
B|---|---|
G|-4-|-2-|
D|-4-|-2-|    3x
A|-2-|-0-|
E|---|---|

E|---|---------------------------------|
B|---|---------------------------------|
G|-4-|-x-x-x-x-x-x-x-x-x-x-x-x-x-x-x-x-|
D|-4-|-x-x-x-x-x-x-x-x-x-x-x-x-x-x-x-x-|
A|-2-|-x-x-x-x-x-x-x-x-x-x-x-x-x-x-x-x-|
E|---|---------------------------------|

Interlude.
Begitu indah..begitu indah..

Ari plays:
E|---------------------------|---------------------------|
B|---------------------------|---------------------------|
G|----9---9---9----9---9---9-|----6---6---6----6---6---6-|
D|---------------------------|---------------------------|
A|-/7---7---7---/7---7---7---|-/4---4---4---/4---4---4---|
E|---------------------------|---------------------------|

E|---------------------------|---------------------|
B|---------------------------|---------------------|
G|----9---9---9----9---9---9-|----6---6---6-2----4-|
D|---------------------------|--------------2----4-|
A|-/7---7---7---/7---7---7---|-/4---4---4---0----2-|
E|---------------------------|---------------------|

Piyu plays.
E|-5-4-5-4-5-4-5-4-5-4-5-4-|
B|-5-5-5-5-5-5-5-5-5-5-5-5-|   8x
G|-4-4-4-4-4-4-4-4-4-4-4-4-|
D|-------------------------|
A|-------------------------|
E|-------------------------|

Outro.
Ooooooooooooo…
Ari plays:
E|---|----------|
B|---|----------|
G|---|-6----2-4-|
D|-2-|-6----2-4-|    4x
A|-2-|-4----0-2-|
E|-0-|----------|

Piyu plays:
E|-------4---4---------4---4---|-----------------------------|
B|---5-7---5---5---5-7---5---5-|-----4-5---5-------4-5---5---|
G|-4-------------4-------------|---6-----6---6---6-----6---6-|   4x
D|-----------------------------|-6-------------6-------------|
A|-----------------------------|-----------------------------|
E|-----------------------------|-----------------------------|

End of song.
E|---|
B|---|
G|---|
D|-2-|
A|-2-|
E|-0-|
Comments