Paddy Casey - Saints And Sinners Chords & Tabs

 

Saints And Sinners Chords & Tabs

Paddy Casey Chords & Tabs

Version: 1 Type: Tab 0 ratings
1 star 2 stars 3 stars 4 stars 5 stars
comments

Saints And Sinners Tab

   
-----------------------------------------------------------------------
			     Saints & Sinners - Paddy Casey              
--------------------------------------------------------------------
Tabbed by: Gerard Kelly   / Also tabbed "I Remember/Damien Rice" 

YEAH IRELAND 

This is the nearest tab to the way Paddy Casey plays it live.  The strum pattern is
fairly handy and shouldn't take you too long to figure.  Enjoy 

Tuning: Standard   Capo 4th Fret  

Intro - 
       A7               Asus4        
e|---0-0-0-0-0-----0------0-0-0-0-------------------------------------|
B|---2-2-2-2-2-----2h3----3-3-3-3-------------------------------------|
G|---0-0-0-0-0-----0------0-0-0-0-------------------------------------|
D|---2-2-2-2-2-----2------2-2-2-2-------------------------------------|
A|---0-0-0-0-0-----0------0-0-0-0-------------------------------------|
E|---X-X-X-X-X-----X------X-X-X-X-------------------------------------|

[ Tab from: http://www.guitartabs.cc/tabs/p/paddy_casey/saints_and_sinners_tab.html ]
Verse
          D                      Bm                     D     
e|---2--2--3-2--2----]-----2--2--2--2--2----]------------------------|
B|---3--3--3--3--3----]-----3--3--0--3--3----]------------------------|
G|---2--2--2--2--2----]-----4--4--4--4--4----]-----Play D Again-------|
D|---0--0--0--0--0----]-----4--4--4--4--4----]------------------------|
A|---x--x--x--x--x----]-----2--2--2--2--2----]------------------------|
E|---x--x--x--x--x----]-----2--2--2--2--2----]------------------------|


       A       A7             (DO THIS SLIDE THRICE!)         D  
e|---0-0-0---0-0-0---]---0---0-0-0-0------0-------0-----------2-------|
B|---2-2-2---2-2-2---]---2H3-3-3-3-3-----3/5-----5/8----------3-------|
G|---2-2-2---0-0-0---]---0---0-0-0-0------0-------0-----------2-------|
D|---2-2-2---2-2-2---]---2---2-2-2-2-----2/4-----4/7----------0-------|
A|---0-0-0---0-0-0---]---0---0-0-0-0------0-------0-----------X-------|
E|---X-X-X---X-X-X---]---X---X-X-X-X------X-------X-----------X-------|

 
| /  slide up
| \  slide down
| h  hammer-on
Comments