Pacifier - Comfort Me Chords & Tabs

 

Comfort Me Chords & Tabs

Pacifier Chords & Tabs

Version: 3 Type: Tab 0 ratings
1 star 2 stars 3 stars 4 stars 5 stars
comments

Comfort Me Tab

   
Transcribed by Adam
Tuning: Dropped D (D A D G B E)
Email: blink182_8899@hotmail.com
This is only my second tab so be nice.


INTRO
E----------------------------------------------------------
B----------------------------------------------------------
G----------------------------------------------------------
D--0-0------------------0-0--------------0-0---------------
A--0-0------------------0-0--------------0-0---------------
D--0-0--5v-5v-5v-5v-----0-0-5v-5v-5v ----0-0-5v-5v-5v------
[ Tab from: http://www.guitartabs.cc/tabs/p/pacifier/comfort_me_tab_ver_3.html ]
INTRO PT 2/ FILL
E----------------------------------------------------------
B----------------------------------------------------------
G----------------------------------------------------------
D--3-3-6-5-4-3-x-x-x-5-3-----------------------------------
A--3-3-6-5-4-3-x-x-x-5-3-----------------------------------
D--3-3-6-5-4-3-x-x-x-5-3-----------------------------------

VERSE (Mostly Drumms)
E----------------------------------------------------------
B----------------------------------------------------------
G----------------------------------------------------------
D--x-x-----------------------------------------------------
A--x-x-----------------------------------------------------
D--x-x-----------------------------------------------------

CHORUS
E----------------------------------------------------------
B----------------------------------------------------------
G----------------------------------------------------------
D---5555555555555-333333333333333--------------------------
A---5555555555555-333333333333333--------------------------
D---5555555555555-333333333333333--------------------------


If you have any corrections, questions or comments please email them to blink182_8899@hotmail.com
Comments