Pachelbel - Cannon In D Chords & Tabs

 

Pachelbel Chords & Tabs

Version: 1 Type: Tab 3 ratings
1 star 2 stars 3 stars 4 stars 5 stars
comments

Cannon In D Tab

#----------------------------------PLEASE NOTE--------------------------------#
#This file is the author's own work and represents their interpretation of the#
#song. You may only use this file for private study, scholarship, or research.#
#-----------------------------------------------------------------------------#
#-- File created with Instab - http://www.pconline.com/~smcarey/instab.html --#
#-----------------------------------------------------------------------------#

Author/Artist: Pachelbel
Title: Cannon in D
Transcribed by: Avi Z
Email: avi@zim.us

Real one got it from my teacher

------------------------------------------------------------------------------
---3---2----0-------------------0---2-----------------------------------------
--2---2----------2---0-----2---0---2------------------------------------------
-4---2---0-4----4---0---0-4---0---2-------------------------------------------
---------------4---2----------------------------------------------------------
------------------------------------------------------------------------------
                                                                              

-2---0------------------------------------------------------------------------
---------3---2---0-------0---2------------------------------------------------
---------------------2--------------------------------------------------------
------------------------------------------------------------------------------
------------------------------------------------------------------------------
------------------------------------------------------------------------------
                                                                              

------------------------------------------------------------------------------
----------------------------0-----------3--3--3--2----------------------------
-------2--0--------------------2-----0----------------------------------------
-4--4--------4--0--4--2--0--------4-------------------------------------------
------------------------------------------------------------------------------
------------------------------------------------------------------------------
                                                                              

---------------------------2-5-7-3-2-0-3-2-0----------------------------------
-3-2-3-------------3-2-0-2-------------------3-2-0----------------------------
-----------2---------------------------------------2-0-----0------------------
-------0-----2-4-0-------------------------------------4-2---4-2--------------
---------4--------------------------------------------------------------------
------------------------------------------------------------------------------
                                                                              
[ Tab from: http://www.guitartabs.cc/tabs/p/pachelbel/cannon_in_d_tab.html ]
------------------------------------------------------------------------------
-------------------0-----------------0-2-3-2-0---------0---0------------------
-------0-2---2-0-----2-0-2-0-------------------2-0-------2---2-0--------------
-0-2-4-----2-----4-----------4-2-0-----------------4-2------------------------
-----------------------------------2------------------------------------------
------------------------------------------------------------------------------
                                                                              

-5-2-3-5-2-3-5-------0-2-3-2-0-2----------------------------------------------
---------------0-2-3--------3-------0-----------0-------------------0-0-0-2---
--------------2------------------0-2-2-0-2-0-3-0-2-0-------------0-2-0-2------
--------------------------------4---------4---------4-2-4-2-0-2-4-------------
------------------------------------------------------------------------------
------------------------------------------------------------------------------
                                                                              

----------0-2-3-5-------------------------------------------------------------
-3--0-2-3---------------------------------------------------------------------
--2---------------------------------------------------------------------------
------------------------------------------------------------------------------
------------------------------------------------------------------------------
------------------------------------------------------------------------------
                                                                              

-2-2-2-3-2-0-------0----------------------------------------------------------
-------------3-3-3---3-2-0---3--3-1-0-1---------------------------------------
----------------------------------------2--2----------------------------------
------------------------------------------------------------------------------
------------------------------------------------------------------------------
------------------------------------------------------------------------------
                                                                              

---5-5-7-5-3-2-2-2-3-2-0------------------------------------------------------
-------------------------3-1-0-1-3---0-----0-2-2------------------------------
-2-------------------------------------2-0------------------------------------
------------------------------------------------------------------------------
------------------------------------------------------------------------------
------------------------------------------------------------------------------
                                                                              

-----------------0------------------------------------------------------------
-3-----------2-3---2-3-----------------------------------------0--------------
---------------------------------2-0-------0-----0---------2-0---2-0---2-0----
---0-2-4-0-----------------0---------4-2-0---4-2---4-0-2-4----------4-2---4-2-
-----------4-----------2-4---2-4----------------------------------------------
------------------------------------------------------------------------------
                                                                              

------------------------------------------------------------------------------
------------------------------------------------------------------------------
------------------------------------------------------------------------------
-0----------------------------------------------------------------------------
------------------------------------------------------------------------------
------------------------------------------------------------------------------
                                                                              

Comments