P O D - Thinkin About Forever Chords & Tabs

 

Thinkin About Forever Chords & Tabs

P O D Chords & Tabs

Version: 1 Type: Tab 0 ratings
1 star 2 stars 3 stars 4 stars 5 stars
comments

Thinkin About Forever Tab

   
!!Tune all strings down one step!!
D - G - C - F - A - D

d------------------------------------------------------------------
a------------------------------------------------------------------
f-------------------------11-9----9--11-11/12-12-12h13--12h13h12-12
C----------------9h11h12-------12----------------------------------
G--9-10--9h10h12---------------------------------------------------
D------------------------------------------------------------------
[ Tab from: http://www.guitartabs.cc/tabs/p/p_o_d/thinkin_about_forever_tab.html ]
d---------------------------------------------------------------------
a---------------------------------------------------------------------
f--11-----------------------------------------------------------------
C------14-12-14-12--11h12-11h12--12/13-13--12h13p12-11--13-12h13p12-11
G---------------------------------------------------------------------
D---------------------------------------------------------------------

d--------------------------------------------------------------------
a--------------------------------------------------------------------
f-------------------------------------------------------11-9---------
C--11-11/12-12/14-14/15-15-16-15h16p16----------9-11-12------12------
G---------------------------------------9-10-12----------------------
D--------------------------------------------------------------------

d---------------------------------------
a---------------------------------------
f---------------------------------------
C--11-9h11--11h12p11--9-9h11--11h12p11--
G---------------------------------------
D---------------------------------------
Hint:This is the solo tab I counldnt figure out the intro but as soon as I get it ill post it!
Questions,Comments are Request E mail me at Tribalwar21@aol.com!!!
Comments