P O D - Southtown Chords & Tabs

 

Southtown Chords & Tabs

P O D Chords & Tabs

Version: 2 Type: Tab 0 ratings
1 star 2 stars 3 stars 4 stars 5 stars
comments

Southtown Tab

   
Song:Southtown 
Artis:P.O.D. (Payable On Death) 
CD:The Fundamental Elements of Southtown 
Tabbed By:raven simental

Half step down dropped B
Low To High: C G C F A D 

Intro/Pre-chorus/Interlude 
consist of Bass and either a synthesyzer or flanged clean guitar 

Verse x2 
D---- -------------------------------------------------- 
A---- -------------------------------------------------- 
F---- -------------------------------------------------- *only at beginning 
of first verse 
C--8/*-4-4-4--4-4-4-4-4--8-8-8--1-1-1--1-1-1-1-1--6-6-6- 
G--8/ -4-4-4--4-4-4-4-4--8-8-8--1-1-1--1-1-1-1-1--6-6-6- 
C--8/ -4-4-4--4-4-4-4-4--8-8-8--1-1-1--1-1-1-1-1--6-6-6- 

Verse x4 

Pre-chorus 
[ Tab from: http://www.guitartabs.cc/tabs/p/p_o_d/southtown_tab_ver_2.html ]
Chorus x4 
D----------------------------------------------------- 
A----------------------------------------------------- 
F-----13-13-13-----13-13-13-----11-11-11-----11-11-11- 
C-4-4----------4-4----------1-1----------1-1---------- 
G-4-4-11-11-11-4-4-11-11-11-1-1--9--9--9-1-1--9--9--9- 
C-4-4----------4-4----------1-1----------1-1---------- 

Verse x4 

Pre-chorus 

Chorus x4 

Interlude 

Guitar comes in x8 
D-------------------- 
A-------------------- 
F-------------------- 
C-4-4-1-4-4-4--x-x-x- 
G-4-4-1-4-4-4--x-x-x- 
C-4-4-1-4-4-4--x-x-x- 

Verse x2 

Chorus x4 

Outro 
D-------------------------------------- 
A--------------full bend--------------- 
F-----------------13^------------------ 
C-4-4-4--4--4-4-4------1-1-1--1--1-1-1- 
G-4-4-4--4--4-4-4-11^--1-1-1--1--1-1-1- 
C-4-4-4--4--4-4-4------1-1-1--1--1-1-1- 

Comments