P O D - Sleeping Awake Chords & Tabs

 

Sleeping Awake Chords & Tabs

P O D Chords & Tabs

Version: 1 Type: Tab 0 ratings
1 star 2 stars 3 stars 4 stars 5 stars
comments

Sleeping Awake Tab

#----------------------------------PLEASE NOTE---------------------------------#
#This file is the author's own work and represents their interpretation of the #
#song. You may only use this file for private study, scholarship, or research. #
#------------------------------------------------------------------------------##

Tabbed By: xtremebikegf_02@yahoo.com
Artist: POD
Title: Sleeping Awake
Cd: Matrix Reloaded Soundtrack

Tuning: Drop D 


Kick ass song by POD to go with a kick ass movie....Rock on.....Tabbed by ear...
If there are any mistakes please self correct and send
a e-mail of corrections or questions to xtremebikegf_02@yahoo.com
==========================================================================================

Intro/Verse:
*let notes ring out.
(Use heavy dist.)
e|-------------------------------------------------------------------------------
B|-------------------------------------------------------------------------------
G|-------------------------------------------------------------------------------
D|-----------------------------------------------------------*3-*1-*0------------
A|-5555----5555----6666----8888668655555----5555----6666-----*3-*1-*0--5555------
D|------*0------*0------*0---------------*0------*0------*0--*3-*1-*0--------*0--

e|-------------------------------------------------------------------------------|
B|-------------------------------------------------------------------------------|
G|-------------------------------------------------------------------------------|
D|-----------------------------------------------------------------*3-*1-*0------|
A|-5555----6666------------------------------5555----5555----6666--*3-*1-*0------|
D|------*0------*0--{ Rest.................}------*0------*0-------*3-*1-*0------|


Chorus:
*let notes ring out.
"Listen to song to get proper timing "
(use heavy dist.)
e|-------------------------------------------------------------------------------
B|-------------------------------------------------------------------------------
G|-------------------------------------------------------------------------------
D|-*0------*5----*6--*8-----*0------*5----*6--*8/*10---[14][14][14]-[14][10][14]-
A|-*0------*3----*6--*8-----*0------*3----*6--*8/*10-----------------------------
D|-*0------------*6--*8-----*0------------*6--*8/*10-----------------------------

e|-------------------------------------------------------------------------------
B|-------------------------------------------------------------------------------
G|-------------------------------------------------------------------------------
D|[14][14][14]-[14][13][14][13][13][13][10][*10]--[14][14][14]-[14][10][14]-[14]
A|-------------------------------------------------------------------------------
D|-------------------------------------------------------------------------------
[ Tab from: http://www.guitartabs.cc/tabs/p/p_o_d/sleeping_awake_tab.html ]
e|---------------------------------------------------|
B|---------------------------------------------------|
G|---------------------------------------------------|
D|[14][14]-[14][13][14][13][13][13][13][10][10][*13]-|
A|---------------------------------------------------|
D|---------------------------------------------------|
===--> Verse x 1
===--> Chorus x 1
(let this ring out at the end of the second time of the chorus)
e|------------|
B|------------|
G|------------|
D|-*0---------|
A|-*0---------|
D|-*0---------|

/////////////////////


Bridge:
(kind of a hard reach, just strech your fingers out first)
^ = bend notes upward. 
e|-------------------------------------------------------------------------------
B|-------------------------------------------------------------------------------
G|------9-9-----7-7-----8-8----10-10--------9-9-----7-7-----8-8----10-10---------
D|----7--7----5--5----6--6----8--8--------7--7----5--5----6--6----8--8-----------
A|--5-------3-------4-------6-----------5-------3-------4-------6----------------
D|-------------------------------------------------------------------------------
  [ clean (vibro effect optional)................................................

e|-------------------------------------------------------------------------------
B|-------------------------------------------------------------------------------
G|------9-9-----7-7-----8-8----10-10--------9-9-----7-7-----8-8----10-10---------
D|----7--7----5--5----6--6----8--8--------7--7----5--5----6--6----8--8-----------
A|--5-------3-------4-------6-----------5-------3-------4-------6----------------
D|-------------------------------------------------------------------------------
  .............................................................................]


e|-------------------------------------------------------------------------------
B|-------------------------------------------------------------------------------
G|-9999-99---7777-77---8888-88--[10][10][10][10]-[10]----9999-99---7777-77-------
D|-7777-77---5555-55---6666-66---88--88--88--88---88-----7777-77---5555-55-------
A|-5555-55---3333-77---4444-44---66--66--66--66---66-----5555-55---3333-33-------
D|-------------------------------------------------------------------------------
  [heavy dist. ..................................................................


e|-------------------------------------------------------------------------------|
B|-------------------------------------------------------------------------------|
G|8888-88--^[10]-----------------------------------------------------------------|
D|6666-66--^8--------------------------------------------------------------------|
A|4444-44--^6--------------------------------------------------------------------|
D|-------------------------------------------------------------------------------|
  ..............]

===--> Chorus x 1
///////////////////

Outro:
e|--------------------------------------------------------------------------------|
B|--------------------------------------------------------------------------------|
G|--------------------------------------------------------------------------------|
D|------3-0-3------3-0-3------3-0-3------3-0-3-0----------------------------------|
A|------3-0-3------3-0-3------3-0-3------3-0-3-0----------------------------------|
D|-0000-3-0-3-0000-3-0-3-0000-3-0-3-0000-3-0-3-0----------------------------------|
  [pm..]     [pm..]     [pm..]     [pm..]
Comments