P O D - Ridiculous Chords & Tabs

 

Ridiculous Chords & Tabs

P O D Chords & Tabs

Version: 1 Type: Bass Tab 0 ratings
1 star 2 stars 3 stars 4 stars 5 stars
comments

Ridiculous Bass Tab

   
P.O.D.
Ridiculous
Satelite
regular tuning
[ Tab from: http://www.guitartabs.cc/tabs/p/p_o_d/ridiculous_btab.html ]
Part A
G---------------
D---4-----------
A-2--2-5-2-5-2-3
E--------------- 10x
Part B
G--------------
D--------------
A-22-2-2----333
E-------3333--- 8x
Part A 8x
Part B 8x
Part A 8x

Part C
G--------------
D--------------
A-2222-3333-000
E-------------- 8x
Part B 16x

Part D
G----------00-22
D---------------
A-2222-4444-----
E---------------

Comments