P O D - Messenjah Chords & Tabs

 

Messenjah Chords & Tabs

P O D Chords & Tabs

Version: 1 Type: Tab 0 ratings
1 star 2 stars 3 stars 4 stars 5 stars
comments

Messenjah Tab

   
RIFF 1 -- Opening drop D tuning
------------------------------------------------------------------------------
------------------------------------------------------------------------------
-12---12---12---12---12---12-12---12\7---7---7---7---7---7-7---7/12---12------
-14---14---14---14---14---14-14---14\9---9---9---9---9---9-9---9/14---14------
------------------------------------------------------------------------------
------------------------------------------------------------------------------

------------------------------------------------------------------------------
------------------------------------------------------------------------------
-12---12---12---12-12---12/14---14---14---14----------------------------------
-14---14---14---14-14---14/16---16---16---16----------------------------------
------------------------------------------------------------------------------
------------------------------------------------------------------------------

============
RIFF 2
|:----------------------------------------------------------------------------
|:----------------------------------------------------------------------------
|:----------------------------------------------------------------------------
|:-0--2--4--0--2--2-2--2-2--2-2--2-2-2-2/5--5-5--5-5--5-5--5---5-5--0-0--0-0--
|:-0--2--4--0--2--2-2--2-2--2-2--2-2-2-2/5--5-5--5-5--5-5--5---5-5--0-0--0-0--
|:-0--2--4--0--2--2-2--2-2--2-2--2-2-2-2/5--5-5--5-5--5-5--5---5-5--0-0--0-0--

                                          Repeat Once
-------------------------------------------:|---------------------------------
-------------------------------------------:|---------------------------------
-------------------------------------------:|---------------------------------
-0-0--0-0--0-0-0-0--0-0--0-0--0-0--0-0--0--:|--2--4--0--2---------------------
-0-0--0-0--0-0-0-0--0-0--0-0--0-0--0-0--0--:|--2--4--0--2---------------------
-0-0--0-0--0-0-0-0--0-0--0-0--0-0--0-0--0--:|--2--4--0--2---------------------

===========                    | RIFF 3
Listen to CD for Harmonics     | 
-----------------12^-----12\---|---12---13--------12--------------------------
------7^-----------------------|-------------13--------12---------------------
-----------5^------------------|----------------------------------------------
-(2)---------------------------|----------------------------------------------
-(2)---------------------------|----------------------------------------------
-(2)---------------------------|----------------------------------------------

[ Tab from: http://www.guitartabs.cc/tabs/p/p_o_d/messenjah_tab.html ]
B-SECTION "I am the messanjah"
------------------------------------------------------------------------------
------------------------------------------------------------------------------
------5-4------------5-4-----------5-4-----------5-4-----------5-4------------
-2-2------5-3---5-5------5-2--2-2------5-3--7-7------5-2--2-2------5-3--5-5---
-2-2------------5-5-----------2-2-----------7-7-----------2-2-----------5-5---
-2-2------------5-5-----------2-2-----------7-7-----------2-2-----------5-5---

------------------------------------------------------------------------------
------------------------------------------------------------------------------
-5-4-----------5-4------------------------------------------------------------
-----5-2--2-2------5-3--7-7-7-7-7-7-7-----------------------------------------
----------2-2-----------7-7-7-7-7-7-7-----------------------------------------
----------2-2-----------7-7-7-7-7-7-7-----------------------------------------

=============
CHORUS:
Play each [2] and [5] 4 times.. Play [0] 7 times.. Play whole Riff twice
------------------------------------------------------------------------------
------------------------------------------------------------------------------
------------------------------------------------------------------------------
-[2-2-2-2]---[5-5-5-5]---[0-0-0-0]------0-2-4-0-2-----------------------------
-[2-2-2-2]---[5-5-5-5]---[0-0-0-0]------0-2-4-0-2-----------------------------
-[2-2-2-2]---[5-5-5-5]---[0-0-0-0]------0-2-4-0-2-----------------------------


Harmonics
RIFF 3
B-SECTION
CHORUS


==============
RIFF 4:
---------------------------------------------------------------------5--------
------------------------------------------------------------------------------
--9---7-7---9---7-7---9---7-7----11-/-12-\-11---9---11------------------------
------------------------------------------------------------------------------
--7---5-5---7---5-5---7---5-5----9--/-10-\-9----7---9-------------------------
------------------------------------------------------------------------------

RIFF 1

------------------------------------------------------------------------------
------------------------------------------------------------------------------
------------------------------------------------------------------------------
-0-2-4-0-2--------------------------------------------------------------------
-0-2-4-0-2--------------------------------------------------------------------
-0-2-4-0-2--------------------------------------------------------------------

CHORUS (2 times)

Then they layer another CHORUS (x2) and RIFF 1 (x2)

RIFF 4

========
RIFF 5 - OUTRO
------------------------------------------------------------------------------
------------------------------------------------------------------------------
------5-4------------5-4------------5-4---------------------------------------
-2-2------5-4---5-5------5-2---2-2------5-4----5--4--2--4--2------------------
-2-2------------5-5------------2-2-------------5--4--2--4--2------------------
-2-2------------5-5------------2-2-------------5--4--2--4--2------------------

                                                                              

if you have any questions,comments are reguest e mail me at Tribalwar21@aol.com
Comments