P O D - Image Chords & Tabs

 

Image Chords & Tabs

P O D Chords & Tabs

Version: 1 Type: Tab 0 ratings
1 star 2 stars 3 stars 4 stars 5 stars
comments

Image Tab

   
Image.tab By P.O.D 

Transcribed by Kamakazee22



Riff1:
E------------------------|
G------------------------|
B------------------------|
D-3-0-12-12--12-12-12-12-|
A-3-0-12-12--12-12-12-12-|
D-3-0-12-12--12-12-12-12-|

Riff2:
E---------------------|
G---------------------|
B---------------------|
D-3--3-3--3--3-3--3-3-|
A-3--3-3--3--3-3--3-3-|
D-3--3-3--3--3-3--3-3-|

**During Inhale-exhale play fret3 chord as 16th notes.**
[ Tab from: http://www.guitartabs.cc/tabs/p/p_o_d/image_tab.html ]
Riff3:
E-------------|
B-------------|                       -0-            
G-------------|                       -0-
D-2-3-0-2-3-2-|every other time end w/-0-.
A-2-3-0-2-3-2-|
D-2-3-0-2-3-2-|

Riff4:
E-----------------------------------|
B-----------------------------------|
G-9-9-9--10-10-10--7-7-7------------|
D-9-9-9--10-10-10--7-7-7--2-3-0-2-3-|
A-7-7-7--8--8--8---5-5-5--2-3-0-2-3-|
D-------------------------2-3-0-2-3-|


*If you listen to the songs you
  can put the riffs in order.
 
Comments