Ozzy Osbourne - You Cant Kill Rock And Roll Chords & Tabs

 

You Cant Kill Rock And Roll Chords & Tabs

Ozzy Osbourne Chords & Tabs

Version: 1 Type: Bass Tab 0 ratings
1 star 2 stars 3 stars 4 stars 5 stars
comments

You Cant Kill Rock And Roll Bass Tab

=== Crankster's Ozzy Page
=== http://crankster.cjb.net
=== crankster@mailexcite.com

Transcriber - Ryan Silke 

You Can't Kill Rock and Roll
Ozzy Osbourne- Diary of A Madman


 Intro and Verse (let ring)  x4
 Gb--------------
 Db--------------
 Ab--------------
 Eb---7------7---

 Pre-Chorus
 Gb------------------------------------------
 Db-------5---------7----------9-9----9------
 Ab------------------------7h9------9---9----
 Eb--3--3----3-5--5---5-7-----------------7--

 Chorus      "Leave me Alone.."
 Gb-------------------------------------------
 Db---------------0-2--2----------------------
 Ab------5-4-2--2------------5-0-2--2---------
 Eb--0-2-----------------0-2----------4-5--5--

             "Won't Ever Change...."
 Gb-------------------------------------------------
 Db-------------------------------------------------
 Ab----4-7-4-5--5-------------4-7-4-5--5------------
 Eb--7------------0-2--5--5-7------------0-2--5--5--

          "You Can't Kill..."      "It's here to stay.."
 Gb----------------------------------------------------------
 Db----------------------------------------------------------
 Ab--7-5-4h5-----------------------/-10--9-------------------
 Eb----------7--7--7--7-/-5-5--5--------------2--(2)--2-4-5--
[ Tab from: http://www.guitartabs.cc/tabs/o/ozzy_osbourne/you_cant_kill_rock_and_roll_btab.html ]
 Verse x 6                                       Into Chorus
 Gb-------------------------------------------|----9---9---9--
 Db---------(9)------------9-----------7------|--7---7---7----
 Ab----77h9-----------7h9---------5h7----7----|---------------
 Eb--7------------7-7--------7--5----------5--|---------------

 Pre-Chorus
 Chorus

 Solo x 4
 Gb----------------------------------------------------
 Db----------------------------------------------------
 Ab----------------------------------------------5--7--
 Eb--0-2-2-0-2--0-2-2-4-5--0--0-2-2-0-2--0-2-2-4-------

  x 3
 Gb--------------
 Db--------------
 Ab--2--2--2--0--
 Eb--------------

 Interlude 
 Gb--------------------------------------------------------
 Db----------9----------9---9-/11-\9--\7-----------7-------
 Ab-----7h9---------7h9---9--------------7--0---0----0--7--
 Eb--7----------7-7----------------------------------------

 Verse
 Pre-Chorus
 Chorus
 Interlude

 Outro (fades out)
 Gb---------------------------------------------------
 Db---------9-----------9------------7---------7------
 Ab----7h9---------7h9----9------5h7-------5h7---7----
 Eb--7---------7-7----------7--5-------5-5---------5--

 Outro Fills             
 Gb--------14------------|-----------|------------------|----9-----9----
 Db--12h14----14---------|--7--------|-----7------------|--7---7-7---7--
 Ab--------------12------|-----7-----|------------------|---------------
 Eb-----------------12\--|--------5--|--5-----5-5-5-5\--|---------------


Comments