Ozzy Osbourne - Thunder Underground Chords & Tabs

 

Thunder Underground Chords & Tabs

Ozzy Osbourne Chords & Tabs

Version: 2 Type: Tab 0 ratings
1 star 2 stars 3 stars 4 stars 5 stars
comments

Thunder Underground Tab

   
i just noticed there werent any full tabs of this song and its a good song. but i didnt
tab this i found it on another website[guitartabz.net] so all credit goes to them or
whoever tabed this. please dont ask me any questions because i DID NOT tab this

Thunder Underground
Ozzy - Ozzmosis



Tune E down to D


e
b
g
d
a
d

|-----------------------------------------------------------|
|-----------------------------------------------------------|
|-----------------------------------------------------------|
|-----------------------------------------------------------|
|-0-0-5-x-0-0-5-x-0-0-5-x-0-0-5-3/5-3/5---------------------|
|-0-0-5-x-0-0-5-x-0-0-5-x-0-0-5-3/5-3/5---------------------|

Chorus:
|5----3------------3---5------------------------------------|
|5----3------------3---5------------------------------------|
|7----5------------5---7------------------------------------|
|7----5------------5---7------------------------------------|
|5----3------------3---5------------------------------------|
|-----------------------------------------------------------|
|                                                           |
|-----------------------------------------------------------|
|3----3-----------------3-----------------------------------|
|2----0-----------------2-----------------------------------|
|0----x-----------------0-----------------------------------|
|0----3-----------------0-----0-0-0-0-0-0-0-----------------|
|0-----------------3^-0-0-----0-0-0-0-0-0-0-----------------|

2nd Verse: ( the "2.6" is the harmonic inbetween the 2 and 3 fret)
|-----------------------------------------------------------|
|-----------------------------------------------------------|
|-----------------------------------------------------------|
|-----------------------------------------------------------|
|-0-0-----0-0-----0-0-----0-0-----/6-/6---------------------|
|-0-0-2.6-0-0-2.6-0-0-2.6-0-0-2.6-/6-/6---------------------|
[ Tab from: http://www.guitartabs.cc/tabs/o/ozzy_osbourne/thunder_underground_tab_ver_2.html ]
"Could it be that i have found my mind or have i gone insane"
|---------------------|--------------------||-------------------------|
|---------------------|-------------repeat-||-------------------------|
|-------------------0-|--------------------||-------0---------0-7\5/7-|
|-2--0--2--0----2h3---|-2--0--2--0---2p0-0-||-3-------3---5-----7\5/7-|
|---------------------|--------------------||-------------------5\3/5-|
|-------------2-------|------------2-------||---3-3-----5---5---------|

SOLO:
|----------------------|--------------3h4p3---3-4p3---------|
|-6--6--6-----5--------|--------------------6-------6-------|
|-8^-8^-8^-8^-7^--^7p5-|-5^---5^--5^------------------------|
|----------------------|------------------------------------|
|----------------------|------------------------------------|
|----------------------|------------------------------------|

|------------------|----------------------------------------|
|-6--6--6---8--5---|-3--------------------------------------|
|-8^-8^-8^-10^-7^--|-5^--5^--5-------------------5-7--------|
|------------------|--------------333555333777777-----------|
|------------------|-----------555--------------------------|
|------------------|----------------------------------------|

|-13^-------------------------------------10---|
|-13^------------10-13---10-13---10-13----10---|
|-----12-10-12^-------12^-----12^-----12^------|
|----------------------------------------------|
|----------------------------------------------|
|----------------------------------------------|

|----------------------------|-----------------------------------------|
|-13^---13^--13^--13^--13^~~-|-10-14---10-14---10-14-----10-14--10-14--|
|----------------------------|------13-------13-----13-13-----13-----13|
|----------------------------|-----------------------------------------|
|----------------------------|-----------------------------------------|
|----------------------------|-----------------------------------------|

|--------------------/20-|--21--22--------------|
|--------------------/20-|--21--22--------------|
|-/11--/13--/14--/15--==-|--==--==--------------|
|-/12--/14--/15--/15--==-|--==--==--------------|
|--==---==---==---==-----|----------x-x---x-x---|
|--==---==---==---==-----|----------x-x---x-x---|end solo

add this at the end of the main riff
|----------------|
|----------------|
|----------------|
|-----0-3p0------|
|-0-3-------3-0--|
|----------------|
Comments