Ozzy Osbourne - Sunshine Of Your Love Chords & Tabs

 

Sunshine Of Your Love Chords & Tabs

Ozzy Osbourne Chords & Tabs

Version: 1 Type: Bass Tab

Sunshine Of Your Love Bass Tab

BASS
OZZY OSBOURNE
SUNSHINE OF YOUR LOVE
ALBUM-UNDER COVER

TABBED BY BILLY MILNE
BEADG

MAIN RIFF
G----------------------|
D----------------------|
A----------------------|
E---------5-4-3--------|
B-3-3-1-3-------3-6-3--|
[ Tab from: http://www.guitartabs.cc/tabs/o/ozzy_osbourne/sunshine_of_your_love_btab.html ]
RIFF
G----------------------|
D----------------------|
A---------5-4-3--------|
E-3-3-1-3-------3-6-3--|
B----------------------|

RIFF
G-------------------|
D-------------------|
A-------------------|
E-5--5-5---8---3----|
B-------------------|