Ozzy Osbourne - Suicide Solution Live Chords & Tabs

 

Suicide Solution Live Chords & Tabs

Ozzy Osbourne Chords & Tabs

Version: 1 Type: Tab 0 ratings
1 star 2 stars 3 stars 4 stars 5 stars
comments

Suicide Solution Live Tab

The grand-daddy of all guitar solos - Randy Rhoads' improvised solo at the end
of Suicide Solution from the live Tribute album. I didnt tab it myself, i found
it on the web but it is incredibly accurate.

|-------------------------------------------------:
|-------------------------------------------------:
|-------------------------------------------------:
|-------------------------------------------------:
|-------3-----------3-----------3-----------3-----:
|-5p3h5---5p3-5p3h5---5p3-5p3h5---5p3-5p3h5---5p3-:

|--------------------------------------------------:
|--------------------------------------------------:
|--------------------------------------------------:
|--------------------------------------------------:
|-------3-----------3-----------3-----------3------:
|-5p3h5---5p3-5p3h5---5p3-5p3h5---5p3-5p3h5---5p3--:

|-------------------------------------------------:
|-------------------------------------------------:
|-------------------------------------------------:
|-------------------------------2-----------2-----:
|-------3-----------3-3-2-4p2h4---4p2-4p2h4---4h5-:
|-5p3h5---5p3-5p3h5-------------------------------:

|---------------------------------------------5------:
|-------------------------------[5]-5-5-8p5-----8p5--:
|-------------------5-5-5-7-5h7-------------8--------:
|-------5-5-5-7p5h7----------------------------------:
|-7p5h7----------------------------------------------:
|----------------------------------------------------:

|-8-5-7-5-----8-5-7-5-------------------------------:
|---------8p5---------8p5-6p5---5-------------------:
|-----------------------------8---8p5s4h5p4---4-----:
|-------------------------------------------7---7p4-:
|---------------------------------------------------:
|---------------------------------------------------:

|-----------------------------------------------:----------------:
|-----------------------------------------------:----------------:
|-----------------------------------------------:----------------:
|-2h3p2-0h2p0-----2-2h3p2-0h2p0-----------------:----------------:
|-------------2h3---------------3p2h3-0h2-------:----------------:
|-----------------------------------------2-(2)-:-(2)------21\---:

|---------------------------------------------:
|-------------------------------------------5-:
|---------------------------------------5-7---:
|-------5---------5---------5---5-7p5h7-------:
|-5h6h7---7-5h6h7---7-5h6h7---7---------------:
|---------------------------------------------:

|-5------8-11-10-8----8----------------------------------------17---------:
|---7s10-----------11---10-8-------10-12-10-----------------17----20-17---:
|----------------------------10s11--------------17-19-17------------------:
|-------------------------------------------/19----------19---------------:
|-------------------------------------------------------------------------:
|-------------------------------------------------------------------------:

|---------17----------17----------17----------17-20b22==:=(20)r------20-20pb22-:
|-20b20.5----20-17-20----20-17-20----20-17-20-----------:----------------------:
|-------------------------------------------------------:----------------------:
|-------------------------------------------------------:----------------------:
|-------------------------------------------------------:----------------------:
|-------------------------------------------------------:----------------------:

|-20b22==(20)r==(20)-17h20p17----17h20p17----:
|-----------------------------20----------20-:
|--------------------------------------------:
|--------------------------------------------:
|--------------------------------------------:
|--------------------------------------------:

|-17h20p17----17h20p17----17--------------------------:
|----------20----------20----20p19p17----17-----------:
|-------------------------------------20----20-19p17--:
|-----------------------------------------------------:
|-----------------------------------------------------:
|-----------------------------------------------------:

|-------------------------------------:----------------:
|-------------------------------------:----------------:
|-19-17----17-------------------------:----------------:
|-------19----19p17-------------19----:-(19)------19\--:
|-------------------19-18-17s16-16----:-(16)------16\--:
|-------------------------------------:----------------:

|--------------:
|--------------:
|--------------:
|--------------:
|--------------:
|---------20\--:

  PM-------------------------------------------------------------|
  T T T T T T T T T T T T T T T T T T T T T T T T T T T T T T  T T
|----------------------------------------------------------------7-:
|---------------------------------------------------------9-7-10---:
|-----------------------------------4-5-7-6-7-9-----7-6-9----------:
|-------------3-5-4-5-7-------4-5-7-------------6-7----------------:
|-------3-5-7-----------4-5-7--------------------------------------:
|-3-5-7------------------------------------------------------------:

|-10p7h8p7----7------------------------------------:
|----------10---10p7-8p7---------------------------:
|------------------------9-7-5-4-5-4---4-2---------:
|------------------------------------7-----4-2h3p2-:
|--------------------------------------------------:
|--------------------------------------------------:

|----------------------------------:-----------:
|----------------------------------:------7----:
|----------------------------------:-5---------:
|-0-2-0---------------4-(4)--(4)-0-:-----------:
|-------2h3p2-0-2-3-0--------------:-----------:
|----------------------------------:-----------:

  PM--------------------------------------|         ~
|-5-----------------------------------------------:------:
|---7---7-----------------------------------------:------:
|-----8---8-5-8-5---5-----------------------------:------:
|-----------------7---7-4-7-4---3-----------------:------:
|-----------------------------5---6-3-6-3---3-----:------:
|-----------------------------------------5---5-3-:-2----:

|-----------------------------:
|-------------------10tr13----:
|--------------8h11-----------:
|---------7h10----------------:
|-----6h9---------------------:
|-5h8-------------------------:

|-11tr14----14tr17--17tr20-------:-21-------------:
|--------------------------17s20-:----------------:
|--------------------------------:----------------:
|--------------------------------:----------------:
|--------------------------------:----------------:
|--------------------------------:----------17\---:

|------------:------------:------------------:
|------------:------------:------------------:
|-2--0--2----:-(2)--------:-(2)-----------4--:
|-2--0--0----:-(0)--------:-(0)------/6-7----:
|-0-----0----:-(0)--------:-(0)--------------:
|----3-------:------------:------------------:

|----------------------:-------------------------:
|----------------------:-------------------------:
|-6----(6)-4-----------:-------------------------:
|------------7-6h7p6-4-:----------3-6-6s7-6-4----:
|----------------------:-2s4--(4)----------------:
|----------------------:----------------------2--:

                             PM------------------|
|-------------------------7------------------------:
|---------------------7s8---10---------------------:
|-----------------2-7----------9----------9------9-:
|---------4-----4----------------11----11------9---:
|---2-3-4---4s5---------------------12------11-----:
|-5------------------------------------------------:

           PM-----|     PM
|-12-10-9--------------------------------:-------------:
|---------10-----------------------------:-0-----------:
|------------9----------9s8tr9-(8tr9)----:-0-----------:
|--------------11----11------------------:-------------:
|-----------------12---------------------:-------------:
|----------------------------------------:-------------:

|-------------17----------17----17h20-17----17h20-:
|-17h20p17h20----20p17h20----20----------20-------:
|-------------------------------------------------:
|-------------------------------------------------:
|-------------------------------------------------:
|-------------------------------------------------:
[ Tab from: http://www.guitartabs.cc/tabs/o/ozzy_osbourne/suicide_solution_live_tab.html ]
|-17----17h20-17----17h20-19p17-17-17-20-19-17----17-17-:
|----20----------20----------------------------20-------:
|-------------------------------------------------------:
|-------------------------------------------------------:
|-------------------------------------------------------:
|-------------------------------------------------------:

|-21-18-17-21-21-17----20-20----18-------17-------15-------14-------13-------:
|-------------------20-------19----20-18----18-16----17-15----17-14----15-13-:
|----------------------------------------------------------------------------:
|----------------------------------------------------------------------------:
|----------------------------------------------------------------------------:
|----------------------------------------------------------------------------:

|-12-------11-------10-------9-------0--:
|----15-13----14-12----13-11---11-10----:
|---------------------------------------:
|---------------------------------------:
|---------------------------------------:
|---------------------------------------:

|-7p4p0-7p4p0-7p4p0-7p4p0-8p5p0-8p5p0-8p5p0-8p0h5-:
|-------------------------------------------------:
|-------------------------------------------------:
|-------------------------------------------------:
|-------------------------------------------------:
|-------------------------------------------------:

|-7p4p0-7p4p0-7p4p0-7p4p0-8p5p0-8p5p0-8p5p0-8p5p0-:
|-------------------------------------------------:
|-------------------------------------------------:
|-------------------------------------------------:
|-------------------------------------------------:
|-------------------------------------------------:

|-12p8p0-12p8p0-12p8p0-12p8p0-10p7p0-10p7p0-10p7p0-10p7p0-:
|---------------------------------------------------------:
|---------------------------------------------------------:
|---------------------------------------------------------:
|---------------------------------------------------------:
|---------------------------------------------------------:

|-8p5p0-8p5p0-8p5p0-8p5p0-7p4p0-7p4p0-7p4p0-7p4p0--:
|--------------------------------------------------:
|--------------------------------------------------:
|--------------------------------------------------:
|--------------------------------------------------:
|--------------------------------------------------:

|---------------------------------------------------------:
|-12p8p0-12p8p0-12p8p0-12p8p0-10p7p0-10p7p0-10p7p0-10p7p0-:
|---------------------------------------------------------:
|---------------------------------------------------------:
|---------------------------------------------------------:
|---------------------------------------------------------:

                           T        T
|---------------------------------------------:
|-8p5p0-8p5p0-8p5p0-8p5s4-12p7p4h7-12p7p4h7---:
|---------------------------------------------:
|---------------------------------------------:
|---------------------------------------------:
|---------------------------------------------:

   T        T          T        T
|---------------------------------------:
|-12p7p4h7-12p4h7p4h5-12p8p5h8-12p8p5h8-:
|---------------------------------------:
|---------------------------------------:
|---------------------------------------:
|---------------------------------------:

   T        T        T            T
|----------------------------------------------:
|-12p8p5h8-12p8p5h7-17p9h12p9h12-17p9h12p9h12--:
|----------------------------------------------:
|----------------------------------------------:
|----------------------------------------------:
|----------------------------------------------:

   T            T         T              T
|------------------------------------------------------:
|-17p9h12p9h12-17p9h12p9-17p10h13p10h13-17p10h13p10h13-:
|------------------------------------------------------:
|------------------------------------------------------:
|------------------------------------------------------:
|------------------------------------------------------:

   T              T              T              T
|--------------------------------------------------------------:
|-17p10h13p10h13-17p10h13p11s12-20p12h15p12h15-20p12h15p12h15--:
|--------------------------------------------------------------:
|--------------------------------------------------------------:
|--------------------------------------------------------------:
|--------------------------------------------------------------:

   T              T              T           T
|-------------------------------------------------------:
|-20p12h15p12h15-20p12h15p12s13-22p17p13h17-22p17p13h17-:
|-------------------------------------------------------:
|-------------------------------------------------------:
|-------------------------------------------------------:
|-------------------------------------------------------:

   T           T        T           T        T           T
|-----------------------------------------------------------:
|-22p18p13h18-22p18p14-22p17p14h17-21p17p14-21p17p14h17-21--:
|-----------------------------------------------------------:
|-----------------------------------------------------------:
|-----------------------------------------------------------:
|-----------------------------------------------------------:

|-----------------:------------------------:
|-----------------:------------------------:
|-----------------:------------------------:
|-----------------:------------------------:
|-0--------(0)----:------------------------:
|-----------------:-0-----(0)------(0)-(0)-:

|----------------------------------------------:
|----------------------------------------------:
|-<5>-(<5>)-(<5>)----(<5>)---(<5>)---(<5>)-----:
|------------------------------------------12--:
|------------------------------------------12--:
|----------------------------------------------:

  PM--------------------------------------------------------------|
|---------------------------------:---------------------------------:
|---------------------------------:---------------------------------:
|-7-5-----8-5-----7-5-----8-5-----:-8-5-7-5-----7-5-----8-5-7-5-----:
|-----7-5-----7-5-----7-5-----7-5-:---------7-5-----7-5---------7-7-:
|---------------------------------:---------------------------------:
|---------------------------------:---------------------------------:

   PM--------------------------------------
|-----------------------------------------:
|-----------------------------------------:
|-10-8------11-8------10-8------11-8------:
|------10-8------10-8------10-8------10-8-:
|-----------------------------------------:
|-----------------------------------------:

----------------------------------------|
|-------------------------------------------:
|-------------------------------------------:
|-11-8-10-8------10-8------11-8-------------:
|-----------10-8------10-8------10-10-12-12-:
|-------------------------------------------:
|-------------------------------------------:

   PM----------------------------------------------
|-------------------------------------------------:
|-------------------------------------------------:
|-14-12-------15-12-------15-13-------16-13-------:
|-------14-12-------14-12-------15-13-------15-14-:
|-------------------------------------------------:
|-------------------------------------------------:

----------------------------------------------|
|-------------------------------------------------:
|-------------------------------------------------:
|-16-14-------17-14-------17-15-------18-15-------:
|-------16-14-------16-14-------17-15-------17-17-:
|-------------------------------------------------:
|-------------------------------------------------:

   PM---------------------|
|----------------------------------------------:
|----------------------------20b22==(20)-(20)--:
|-18-16-------19-16-------19-------------------:
|-------19-17-------17-17----------------------:
|----------------------------------------------:
|----------------------------------------------:

|--------------:-------------------------------------------:
|-(20)r--------:-------------------------------------------:
|--------------:-0-----(0)-(0)-----------------------------:
|--------------:---------------0---(0)-(0)-----------------:
|--------------:---------------------------0---(0)-(0)-----:
|--------------:-------------------------------------------:
Comments