Ozzy Osbourne - See You On The Other Side Chords & Tabs

 

See You On The Other Side Chords & Tabs

Ozzy Osbourne Chords & Tabs

Version: 2 Type: Tab 0 ratings
1 star 2 stars 3 stars 4 stars 5 stars
comments

See You On The Other Side Tab

See You On the Other Side (Solo)
Ozzy Osbourne
Ozzmosis
transcribed by Wade Johnson (w_j23@hotmail.com)

tune down 1/2 step

eb|-------------------------------------------------------|
Bb|-------------------------------------------------------|
Gb|-----------7-----7h9-10b12~~----------7---7h9-10b12~~--|
Db|-----5-7/9---9-7------------------7h9---9--------------|
Ab|-5h7---------------------------------------------------|
Eb|-------------------------------------------------------|


eb|-10----10------------------------------10b12~~-10~~--------------|
Bb|-10b12-10b12r10p8-10--8h10p8~~-----8----------------10b12r10p8---|
Gb|-------------------------------7h9---9-------------------------9-|
Db|-----------------------------------------------------------------|
Ab|-----------------------------------------------------------------|
Eb|-----------------------------------------------------------------|


eb|---------------------------------------------------|
Bb|-10b12r10b12r10b12b10b12r10b12r10b12-10b12r10-8----|
Gb|------------------------------------------------9--|
Db|---------------------------------------------------|
Ab|---------------------------------------------------|
Eb|---------------------------------------------------|

[ Tab from: http://www.guitartabs.cc/tabs/o/ozzy_osbourne/see_you_on_the_other_side_tab_ver_2.html ]
eb|-15p12-------------------------------|
Bb|-------15p12-------------------------|
Gb|-------------14p12-------------------|
Db|-------------------14p12-------------|
Ab|-------------------------14p12-------|
Eb|-------------------------------15p12-|


eb|--------------------------------------------------------15-|
Bb|--------------------------------------------------15/17----|
Gb|--------------------------------------------12-------------|
Db|--------------------------------12----12h14----14----------|
Ab|--------12----------12----12h14----14----------------------|
Eb|-12--15----15-12h15----15----------------------------------|


eb|-17b19r17-15----15b17-15b17-15~~-------15-/20-19-17-------|
Bb|-------------17------------------15h17--------------18b20-|
Gb|----------------------------------------------------------|
Db|----------------------------------------------------------|
Ab|----------------------------------------------------------|
Eb|----------------------------------------------------------|

 *strike note while holding bend
eb|-----------------------|
Bb|-20-18-----------------|
Gb|-------17b19r17p15-----|
Db|-------------------17--|
Ab|-----------------------|
Eb|-----------------------|

email me at w_j23@hotmail.com if you have any questions or comments
Comments