Ozzy Osbourne - Paranoid Chords & Tabs

 

Paranoid Chords & Tabs

Ozzy Osbourne Chords & Tabs

Version: 3 Type: Tab 0 ratings
1 star 2 stars 3 stars 4 stars 5 stars
comments

Paranoid Tab

Couldn't help but notice that nobody can tab the live version of Paranoid
correctly (from the Tribute album), so here it is to put you out of your misery

INTRO
E-------------------------------------|
B-------------------------------------|
G----------------------7h9-------7h9--|
D--7h9--7h9--7h9--7h9-------7h9-------| play 3 times then...
A--7----7----7------------------------|
E--0----0----0------------------------|

E-------------------------------------|
B-----------------------7--8-------7--|
G-----------------7-----7--9--7/9--7--|
D--7h9--7h9--7h9--7--9--------7/9-----|
A--7----7----7------------------------|
E--0----0----0------------------------|


VERSE
E---------------------------------------------------------------------
B---------------------------------------------------------------------
G--------9-----------9-----------9---------------------7--------7-----
D--------9-----------9-----------9---------------------7--------7-----
A--------7-----------7-----------7----------5h7--5--5-----5--5-----5--
E--0--0-----0--0--0-----0--0--0-----0--5h7----------------------------
   pm..     .......     .......     .            ....     ....     .
[ Tab from: http://www.guitartabs.cc/tabs/o/ozzy_osbourne/paranoid_tab_ver_3.html ]
E--------------------|------------------------------------------------
B-----------8h9p8h9--|------------------------------------------------
G--7-----------------|--------9-----------9-----------9---------------
D--5--7--9-----------|--------9-----------9-----------9---------------
A-----5--7-----------|--------7-----------7-----------7----------5h7--
E--------------------|--0--0-----0--0--0-----0--0--0-----0--5h7-------
                     pm.....     .......     .......     .

E|-------------------------------------------------------------------------|
B|-------------------------------------------------------------------------|
G|--7-----7--7--------0--5--7p0-----9*--(9)*--(9)*--(9)*/---------5--7-----|
D|--7-----7--5--7--9--0--5--7p0--2-------------------------2------5--7--2--|
A|--5--5--5-----5--7-----3--5----2-------------------------2------3--5--2--|
E|-------------------------------0-------------------------0/19\--------0--|
       .              ^

e|-------|
B|-------|
G|-------|
D|-------|
A|-------|
E|--19/--|

Legend
h=hammer on
p=pull off
... (underneath the tab) = palm mute
9* = pinch harmonic
^ (underneath the tab) = press down tremolo bar

For the solo check out ver2 because its correct
Comments