Ozzy Osbourne - Paraniod Live Chords & Tabs

 

Paraniod Live Chords & Tabs

Ozzy Osbourne Chords & Tabs

Version: 1 Type: Bass Tab 0 ratings
1 star 2 stars 3 stars 4 stars 5 stars
comments

Paraniod Live Bass Tab

Artist:Ozzy Osbourne and Randy Rhoads
Album:Tribute
Song:Paraniod (live)
Tuning:EADG

00:08
|--------------------------7h9--|x2
|--------------------7h9--------|
|----------7--7-7---------------|
|-------------------------------|

|-------------------7h9--------------|x2
|----------------7h9-----------5-----|
|-777777777777777------55555555-5/7--|
|------------------------------------|

|----------------------|x2
|----------------------|
|------7~--3---5/7-----|
|----------------------|
[ Tab from: http://www.guitartabs.cc/tabs/o/ozzy_osbourne/paraniod_live_btab.html ]
|-------------------7h9--------------|x2
|----------------7h9-----------5-----|
|-777777777777777------55555555-5/7--|
|------------------------------------|

|------------------------------|x2
|------------------------------|
|-777777777777777-55555555-----|
|------------------------------|

|-------------------7h9--------------|x14
|----------------7h9-----------5-----|
|-777777777777777------55555555-5/7--|
|------------------------------------|

|---------------------------|
|---------------------------|x2
|------77777777733335555/7--|
|---------------------------|
 

Play this until the end 
|-------------------7h9--------------|
|----------------7h9-----------5-----|
|-777777777777777------55555555-5/7--|
|------------------------------------|

Enjoy!
Comments