Ozzy Osbourne - No Rest For The Wicked Chords & Tabs

 

No Rest For The Wicked Chords & Tabs

Ozzy Osbourne Chords & Tabs

Version: 1 Type: Tab 0 ratings
1 star 2 stars 3 stars 4 stars 5 stars
comments

No Rest For The Wicked Tab

   
Band- Ozzy Osbourne
Album- No Rest For The Wicked

1.MIRACLE MAN

Eb tuning

Play (Riff) (4X)                   (b)up 1/2 step
 (intro)
|------------5--------------------5---------------|
|------------5--------------------5---------------|
|---------------4---2--1------------4(b)--2-------|
|---------------4---2--2------------4(b)--2-------|
|-------------------------------------------------|
|----2-2-2-2--------------2-2-2-2-----------------|


Riff2 Play 4X                        (hold)  "looking for a Mir-acle
Man
                                                  (first 2 verses)
|--------------------------------|----------|-----------------------------|
|--------------------------------|----------|-----------------------------|
|--------------------------------|----------|-----------------------------|
|--------------------------------|------(4)-|-----------------------------|
|----4--4----------4--2----------|------(2)-|--4-4------------------------|
|----O--2--2-2-2-2-O--O--2-2-2-2-|--2-2-----|--O-2-2-2-2-2-2-2--2--2--2--2|

  "that tells me no lies"
                 {pinch harmonic}   I     don`t  know....from|
|--------------------------------||------7(b)-7--5-----------|
|--------------------------------||------7(b)-7--5-7---------|
|---4------------------------{9}-||----------------7---------|
|---2--4-4-----------------------||---6--------------9-- 11--|
|------2-2-----4--4--------------||---4--------------7----9--|
|----------X-X-O--2-O-2-O-2------||-----------------------9--|

I  don`t know where...been!
|----7(b)-7-5----------------|
|----7(b)-7-5--7-------------|
|--------------7-------------|
|--6---------------9------11-|
|--4---------------7-------9-|

Not our Jimmy sinner...                                    he`s so
obscene
          (6th verse) [let ring]                            {pinch
harm.}
|-------------------------------------------------------------------------|
|-------------------------------------------------------------------------|
|-------------------------------------------------------------------------|
|--6--9--9--8--6--4--6--[6]-----------------------------------------------|
|--4--7--7--6--4--2--4--[4]--5-5-5-5-5-4-4-4-4-4-3-3-3-3-3-2-2-2-2-2------|
|--------------------------------------------------------------------{3~}-|

    Miracle Man Your busted/ Miracle Man.....

|------------5----------------------------------|
|------------5----------------------------------|
|----------------4--2--1-------------4--2--1----|
|----------------4--2--2-------------4--2--2----|
|-----------------------------------------------|
|--2-2-2-2------------------2-2-2-2-------------|


solo:
eb|-----9--14--------9--14-------9--14-------9--14--|
Bb|-12-----------12----------12----------12---------|
Gb|-------------------------------------------------|
Db|-------------------------------------------------|
Ab|-------------------------------------------------|
Eb|-------------------------------------------------|

eb|------12--16-------12--16-------12--16------12--16---|
Bb|--14-----------14-----------14-----------14----------|
Gb|-----------------------------------------------------|
Db|-----------------------------------------------------|
Ab|-----------------------------------------------------|
Eb|-----------------------------------------------------|

eb|------14--17-------14--17-------14--17-------14--17--------|
Bb|--15-----------15-----------15-----------15----------------|
Gb|-----------------------------------------------------------|
Db|-----------------------------------------------------------|
Ab|-----------------------------------------------------------|
Eb|-----------------------------------------------------------|

Ending 1:
eb|--19--14----------17--14-----------19--14----------17--14-----------------|
Bb|----------17--14----------17--14-----------17--14----------17--14---------|
Gb|---------------------------------------------------------------------16^~~|
Db|--------------------------------------------------------------------------|
Ab|--------------------------------------------------------------------------|
Eb|--------------------------------------------------------------------------|
note: This is extremely hard and extremely fast.

Ending 2:
eb|---------------------------------------------------------------|
Bb|---17~-------17~-----------------------------------------------|
Gb|-------16~--------14~------------------------------------------|
Db|---------------------------------------------------------------|
Ab|---------------------------------------------------------------|
Eb|---------------------------------------------------------------|
   Vibrato the hell out of these notes

("rock bends") Its hard to show the rhythm for the bend, but listen
to the CD and figure it.
eb|---------------------------------------------------------------|
Bb|--2------------------------------------------------------------|
Gb|--4^--4-4-4-4-4-----7^-slide-/21-------------------------------|
Db|---------------------------------------------------------------|
Ab|---------------------------------------------------------------|
Eb|---------------------------------------------------------------|
With your picking hand, take your index finger and do a finger tap
on the 7 while you bend the 2/4 bend 1/2 step.  After that, slide
your finger up to the 21st fret and bend the 2/4 bend 1 whole step.


     1/2                         1/2
eb|---------------------------------------------------------------|
Bb|---------------------------------------------------------------|
Gb|--11^--11--9--11--9-----------11^--11--9--11--9----------------|
Db|---------------------11--9-----------------------11--9---------|
Ab|---------------------------------------------------------------|
Eb|---------------------------------------------------------------|

              (rock bend, half step)
eb|----------------9----------------------------------------------|
Bb|--7/-8--7/-8----12^--------------------------------------------|
Gb|--8/-9--8/-9---------------------------------------------------|
Db|--7/-8--7/-8---------------------------------------------------|
Ab|---------------------------------------------------------------|
Eb|---------------------------------------------------------------|


Rock bends...............      Vibrato the hell out of these notes!
eb|---------------------------------------------------------------|
Bb|--2--4--5--7--9---10--12---------------------------------------|
Gb|--4--6--7--9--11--12--14-----21~~~~21~~~~21~~~~~21~~~~~~-------|
Db|---------------------------------------------------------------|
Ab|---------------------------------------------------------------|
Eb|---------------------------------------------------------------|

2.DEVIL'S DAUGHTER

Tune down 1/2 step: Eb Ab Db Gb Bb Eb


  RIFF 1
                                                                     ~~
 ||------------------|-----------------|-----------------|--------------||
 ||------------------|-----------------|-----------------|--------------||
 ||------------------|-----------------|-----------------|--------------||
 ||--7-----5-----7---|---5-------------|-7-----5-----7---|--------------||
 ||----0-0---0-0---0-|-0---0-0-3-6-5-3-|---0-0---0-0---0-|-0-5^b---5-3--||
 ||------------------|-----------------|-----------------|--------------||


  RIFF2                               *1st ending riff              *2nd ending riff
 ||-------------------|-------------------|-------------------|----------||--------|
 ||--7---7--5---5--2--|(2)----0---0--2----|--7---7--5---5--0--|(0)-------||--------|
 ||--7---7--5---5--2--|(2)----0---0--2----|--7---7--5---5--0--|(0)-------||--0-----|
 ||--7---7--5---5--2--|(2)----0---0--2----|--7---7--5---5--0--|(0)-------||--0-----|
 ||-------------------|-------------------|-------------------|-------3--||--x-----|
 ||-------------------|-------------------|-------------------|-------1--||--3-----|


  RIFF3
 ||--3---2--------|------------------|--3--2-------|------------------|--3--2------|
 ||--3---3---2----|--------8---------|--3--3-------|------------------|--3--3---2--|
 ||--2---2---2----|----5---7^8^7^5---|--2--2-------|------------------|--2--3---2--|
 ||--0---0---2----|--7---7-----------|--0--0---3---|(3)-3-3-3-3-3-3-3-|--0--0---2--|
 ||----------0----|------------------|---------3---|(3)-3-3-3-3-3-3-3-|---------0--|
 ||---------------|------------------|---------1---|(1)-1-1-1-1-1-1-1-|------------|


 ||-------------------|-----------------|-----------------|-----------------|-0----|
 ||--------8----------|-----------------|-----------------|-----------------|-0----|
 ||---5----7^8^7^5----|-----------------|-----------------|-----------------|-1----|
 ||-7---7---------7---|-5-5-5-5-5-5-5-5-|-0-0-0-0-0-0-0-0-|-3-3-3-3-3-3-3-3-|-2----|
 ||-------------------|-5-5-5-5-5-5-5-5-|-0-0-0-0-0-0-0-0-|-3-3-3-3-3-3-3-3-|-2----|
 ||-------------------|-3-3-3-3-3-3-3-3-|-2-2-2-2-2-2-2-2-|-1-1-1-1-1-1-1-1-|-0----|


  SOLO
                     ~~                ~~~~~~~                   ~~~
 ||-------------|---------------------|---------|-------------------|-------------|
 ||--------17^b-|----17---------------|---------|--12---------------|--------17^b-|
 ||-----15------|-------13-15^13-15^b-|(15)-----|--11^b-rb^11^9-11--|-----15------|
 ||--16---------|---------------------|---------|-------------------|--16---------|
 ||-------------|---------------------|---------|-------------------|-------------|
 ||-------------|---------------------|---------|-------------------|-------------|

      ~~               ~~~~~~~~~               ~~~~
 ||-------------------|-----------|------------------|--------------------------|
 ||--17---------------|-----------|------------------|-14--------14--------14---|
 ||-----13-15^13-15^b-|(15)-------|-11^b---11-11-----|-14--------14--------14---|
 ||-------------------|-----------|------------------|---16161616--16161616-----|
 ||-------------------|-----------|------------------|--------------------------|
 ||-------------------|-----------|------------------|--------------------------|


 ||------------------------------------------|--------------------------|
 ||-13121013-12101312-10131210-12^b^12^10-12-|-14--------14--------14---|
 ||------------------------------------------|-14--------14--------14---|
 ||------------------------------------------|---16161616--16161616-----|
 ||------------------------------------------|--------------------------|
 ||------------------------------------------|--------------------------|


 ||-12-11-10-9-8-12-11-10-|-------------------------|-14-----------14------------|
 ||-----------------------|-14--------14--------14--|---17^14-17^b---17^14-17^b--|
 ||-----------------------|-14--------14--------14--|----------------------------|
 ||-----------------------|---16161616--16161616----|----------------------------|
 ||-----------------------|-------------------------|----------------------------|
 ||-----------------------|-------------------------|----------------------------|

 ||-------------------------|-14^b--------|-----------------------------------|
 ||-14--------14--------14--|------14-14--|-8^0-7^0-5^0-7^0-8^0-7^0-5^0-7^0---|
 ||-14--------14--------14--|-------------|-----------------------------------|
 ||---16161616--16161616----|-------------|-----------------------------------|
 ||-------------------------|-------------|-----------------------------------|
 ||-------------------------|-------------|-----------------------------------|


||-----------------------------------|---------------------------------|-----------|
||-10^0-8^0-7^0-8^0-10^0-8^0-7^0-8^0-|-5^0-3^0-1^0-3^0-5^0-3^0-1^0-3^0-|2---5--7---|
||-----------------------------------|---------------------------------|4^b-7^b-9^b|
||-----------------------------------|---------------------------------|-----------|
||-----------------------------------|---------------------------------|-----------|
||-----------------------------------|---------------------------------|-----------|


 ||---------------------------------|-----------------------------------|
 ||-8^0-7^0-5^0-7^0-8^0-7^0-5^0-7^0-|-10^0-8^0-7^0-8^0-10^0-8^0-7^0-8^0-|
 ||---------------------------------|-----------------------------------|
 ||---------------------------------|-----------------------------------|
 ||---------------------------------|-----------------------------------|
 ||---------------------------------|-----------------------------------|

||---------------------------------------|---------------------------------------|
||12^0-10^0-8^0-10^0-12^0-10^0-8^0-10^0-|2---5---7-------17-20^17----17-20^17--17|
||--------------------------------------|4^b-7^b-9^b--19^b-------19^b-------19^b-|
||---------------------------------------|---------------------------------------|
||---------------------------------------|---------------------------------------|
||---------------------------------------|---------------------------------------|


||---------------------------------|--------------------------------|--------------|
||20^17----17-20^17----17-20^17----|17-20^17----17-20^17----17-20^17|--------------|
||-----19^b--------19^b--------19^b|-------19^b--------19^b---------|19^b^19-17-19-|
||---------------------------------|--------------------------------|--------------|
||---------------------------------|--------------------------------|--------------|
||---------------------------------|--------------------------------|--------------|

||20^b-rb^20^17-20^17--------|20^b--rb^20^17--20^17---------|20^b^20-17----------|
||------------------20^17----|---------------------20^17----|---------20^b^20-17-|
||----------------------19^17|-------------------------19^17|------------------19|
||---------------------------|------------------------------|--------------------|
||---------------------------|------------------------------|--------------------|
||---------------------------|------------------------------|--------------------|

 ||-------------------||
 ||-------------------||
 ||--19^b~~~----------||
 ||-------------------||
 ||-------------------||
 ||-------------------||


3.CRAZY BABIES

Tune down 1/2 step: Eb Ab Db Gb Bb Eb


1,2,3===================================||4===================================|
|--------------------|-------------------|-------------3-------|--------------|
|--------------------|-------------------|-------------3-2/4\2-|--------------|
|--------------------|-------------------|---------------2/4\2-|--------------|
|-----------------2--|-----------2-----2-|---------------------|-----2------2-|
|-2----2-2-2------0--|-2-----2---0-PH--0-|-2----2-2-2----------|-2---0-PH---0-|
|-0----0-0-0--0-3----|-0-----0-3---3^----|-0----0-0-0----------|-0-3---3^-----|

Verse: "theyd better come down soon or everyone will know just why"
|------------------------|-----------------------|--------|
|----------3-------------|--3---------------3----|-9~~~---|
|----------2-------2-----|--2--------2------2----|-9------|
|-2--------0-------2-----|--0--------2------0----|-9------|
|-2----------------0-----|-------0-0-0-----------|--------|
|-0----------------------|-----------------------|--------|

----------------------------------|---------------3-------|
----------------------------------|-9~~~----------3-2/4\2-|then play 1st fig. - 2nd half
----------------------------------|-9---------------2/4\2-|
-----------------------2--------2-|-9---------------------|
PM..................---0-PH-----0-|-----------------------|
-0-0-0-0-0-0-0-0-0-0-3---3^--0----|------0--0--0----------|

"Nobodys gonna tame them...they're never gonna stop..."
|-----------------|-------------------|------3------------|
|-9~~-------------|-------------------|------3----3-------|
|-9---------------|-------------------|------0----2-------|
|-9---------------|-----------2-----2-|-2----0----0-------|
|-----------------|-----------0-PH--0-|-2-----------------|
|-----0-0-0-0-0-0-|-0-0-0-0-3---3^----|-0----3------------|
                                     "Walk that walk"
|---------------|-------------/15~~~-|--------------------|
|---------------|-------------/14----|-------------3------|
|-2-2-2-2-2-2-2-|-7---5---2---/14----|-7--5--2-----0------|
|-2-2-2-2-2-2-2-|-7---5---2----------|-7--5--2-----0------|
|-0-0-0-0-0-0-0-|-5---3---0----------|-5--3--0------------|
|---------------|--------------------|---------3-3-3------|
                   "Talk that talk"
|----------/15~~--|---------------|
|----------/14----|-------------3-|
|-7--5--2--/14----|-7--5--2-----0-|
|-7--5--2---------|-7--5--2-----0-|
|-5--3--0---------|-5--3--0-------|
|-----------------|---------3-3-3-|

Interlude:
|-------------------release---------------------|
|--------------15^----^----^--------------------|
|-4------------------------------12h14p12-------|
|-4----------------------------------------14---|
|-2-----PH--------------------------------------|
|-------3~~~------------------------------------|

|---------------|--------------|-10--10--10---|10-10-10---|
|-------------7-|--/9----------|---10--10--10-|--9--9--9--|
|-------------7-|--/9----------|--------------|-----------|
|----9-9-7--5-7-|--/9----------|--------------|-----------|
|---------------|--------------|--------------|-----------|
|---------------|--------------|--------------|-----------|

|-9---9---9---|-x\-------|---------------------------|
|---8---8---8-|-x\\-PS---|-9-\-7-7~~~~~~~~~~~~~~~~~--|
|-------------|---\\-----|-9-\-7-7-------------------|
|-------------|----\\----|-9-\-7-7-------------------|
|-------------|-----\\---|-7-\-5-5-------------------|
|-------------|------\\--|---------------------------|

|----------------0--|-------------------------------------|
|----------------0--|----------9-\-7-7~~~~~~~~~~~~~~~~~~--|
|-----2--------4-4--|----------9-\-7-7--------------------|
|-----2--------2----|----------9-\-7-7--------------------|
|-----0----2--------|----------7-\-5-5--------------------|
|-3-3---3^-0--------|-------------------------------------|

Solo:
|--------------------------|------------------------------|
|--------------------------|-----9---12--10--7------------|
|-7-7-7-7----7-7-7-7-------|-9-----------------7~~7~~~~~--|
|---------9----------9~~~~-|---9---9---9---9--------------|
|-------------------PH-----|------------------------------|
|--------------------------|------------------------------|

|-----------------------------|-tap-----------------|
|-----------------------------|---------------PH----|
|-7-7-7-7----7-7-7-7---11p9p7-|-21^^^^^^(9)-7-9~~~--|
|---------9----------9--------|---------------------|
|-----------------------------|---------------------|
|-----------------------------|---------------------|

|-------------------------------------|--------------------------15^-|
|---10^-10--12^-12-10-15^--15-12--15^-|-15-12---15^-15-12--15^-x-----|
|---------9---------------------14----|------14----------14----------|
|-------------------------------------|------------------------------|
|-------------------------------------|------------------------------|
|-------------------------------------|------------------------------|

|--14-13-12-15^--14-|-13-12----------------|
|-------------------|-------14^--12~~~~----|
|-------------------|--------------------8-|
|-------------------|----------------------|
|-------------------|----------------------|
|-------------------|----------------------|

|-10p7-------10p7-------10p7-------10p7--------|
|-----10p7-------10p7-------10p7-------10p7----|
|---------9p7--------9p7--------9p7--------9p7-|
|----------------------------------------------|
|----------------------------------------------|
|----------------------------------------------|

|-10p7-------10p7--------------|--------------------------------------|
|-----10p7-------10p7----------|--------------------------------------|
|---------9p7--------9p7-9~~~~-|-------------------------------797979-|
|------------------------------|-797979-911911911-111211121112--------|
|------------------------------|--------------------------------------|
|------------------------------|--------------------------------------|

|----------------------|-------------------|--------------|
|----------------------|-Pinch Harm.-------|--P.H.--------|
|-11911911-12^--12~~~~-|-------------------|--------------|
|----------------------|-------------------|--------5-----|
|----------------------|-5-----5-----7-----|----7---------|
|----------------------|----7-----5-----4--|-7------------|

|---------------------------|----------------x\-----------|
|------------PH------PH-----|----------------x\\----------|
|-----------(1/2)-----------|------------------\\---------|
|--full--------------full---|-------------------\\--------|
|--7^--------7^------5^-----|-2h5p2h5p2h5p2------\\-------|
|---------------------------|---------------------\\------|

4.BREAKING ALL THE RULES

-0-0-+-0-----------------+------------------+-------------------+------------------+
-0-0-+-0-----------------+------------------+-------------------+------------------+
-9-9-+-0-----------------+------------------+-----------------4-+---------2/4-0----+
-7-9-+-9-----x-x-5-----7-+---------------xx-+-5-----x-x-7-----2-+---------------40-+
-7-7-+-7-----x-x-3-----5-+---------------xx-+-3-----x-x-5-----2-+------------------+
-0-0-+-0-0-0-------0-0---+-0-0-0-0-0-0-0----+---0-0-------0-0---+-0-0-0-3----------+


Then...Play this riff 5 times...
-------------------+------------------+-------------------+--------------------+
-------------------+------------------+-------------------+--------------------+
-4-----------------+------------------+-------------------+---------2/4-0------+
-2-----x-x-5-----7-+---------------xx-+-5-----x-x-7-----9-+---------------4-0x-+
-2-----x-x-3-----5-+---------------xx-+-3-----x-x-5-----7-+--------------------+
-0-0-0-------0-0---+-0-0-0-0-0-0-0----+---0-0-------0-0---+-0-0-0-3------------+

then....
Nobody thinks the way...
------------------------+-------------------------+-----------------+-----------------+
----------------9\7/9\--+-------7--9----9\7/9\----+-----------------+-----------------+
----------------9\7/9\--+-------7--9----9\7/9\----+-----------------+-----------------+
-4----7----9----9\7/9\--+-4-----7--9----9\7/9\----+-5---4---5---4---+-5---4---5---4---+
-2----5----7----7\------+-2-----5--7----7-------3-+---3---3---3---3-+---5---5---5---5-+
------------------------+-------------------------+-----------------+-----------------+

      Your heads so full.....
------------------------+-------------------------+-----------------+-----------+
----------------9\7/9\--+-------7--9----9\7/9\----+-----------------+-----------+
----------------9\7/9\--+-------7--9----9\7/9\----+-----------------+-----------+
-4----7----9----9\7/9\--+-4-----7--9----9\7/9\----+-5---4---5---4---+-5------4--+
-2----5----7----7\------+-2-----5--7----7-------3-+---3---3---3---3-+-5------5--+
------------------------+-------------------------+-----------------+-----------+


-------------------+------------------+---------------------+--------------------+
-------------------+------------------+---------------------+--------------------+
-4-----------------+------------------+---------------------+---------2/4-0------+
-2-----x-x-5-----7-+---------------xx-+-5-----x-x-7------9--+---------------4-0x-+
-2-----x-x-3-----5-+---------------xx-+-3-----x-x-5------7--+------------------x-+
-0-0-0-------0-0---+-0-0-0-0-0-0-0----+---0-0-------0-0-----+-0-0-0-3------------+

-------------------+------------------+-------------------+
-------------------+------------------+-------------------+
-4-----------------+------------------+-------------------+
-2-----x-x-5-----7-+---------------xx-+-5-----x-x-7-----9-+
-2-----x-x-3-----5-+---------------xx-+-3-----x-x-5-----7-+
-0-0-0-------0-0---+-0-0-0-0-0-0-0----+---0-0-------0-0---+


----------------------+
----------------------+
----------2/4-0-------+
----------------4-0-x-+
--------------------x-+
-0-0-0-3--------------+

-------------------+------------------+---------------------+--------------------+
-------------------+------------------+---------------------+--------------------+
-4-----------------+------------------+---------------------+---------2/4-0------+
-2-----x-x-5-----7-+---------------xx-+-5-----x-x-7------9--+---------------4-0x-+
-2-----x-x-3-----5-+---------------xx-+-3-----x-x-5------7--+------------------x-+
-0-0-0-------0-0---+-0-0-0-0-0-0-0----+---0-0-------0-0-----+-0-0-0-3------------+

Nobody Hears the things...
------------------------+-------------------------+-----------------+-----------------+
----------------9\7/9\--+-------7--9----9\7/9\----+-----------------+-----------------+
----------------9\7/9\--+-------7--9----9\7/9\----+-----------------+-----------------+
-4----7----9----9\7/9\--+-4-----7--9----9\7/9\----+-5---4---5---4---+-5---4---5---4---+
-2----5----7----7\------+-2-----5--7----7-------3-+---3---3---3---3-+---5---5---5---5-+
------------------------+-------------------------+-----------------+-----------------+

      My heads so full.....
------------------------+-------------------------+-----------------+-----------+
----------------9\7/9\--+-------7--9----9\7/9\----+-----------------+-----------+
----------------9\7/9\--+-------7--9----9\7/9\----+-----------------+-----------+
-4----7----9----9\7/9\--+-4-----7--9----9\7/9\----+-5---4---5---4---+-5------4--+
-2----5----7----7\------+-2-----5--7----7-------3-+---3---3---3---3-+-5------5--+
------------------------+-------------------------+-----------------+-----------+
[ Tab from: http://www.guitartabs.cc/tabs/o/ozzy_osbourne/no_rest_for_the_wicked_tab.html ]
--------------------+-------------------------+----------------+
--------------------+-------------------------+----------------+
---------4----------+-2-----------------------+--------4-------+
--4------4--2-------+-2------4----------------+-4------4-------+
--2-0-0-----2-------+--------2---0-/\/\/\/\/\-+-2----------2---+
--------------0-0-3-+---0-3-------------------+----0-0-----0---+


-----------+----------------+---------------------+-----------------------+
-----------+----------------+---------------------+-----------------------+
-----------+-------2--------+-2---2-2-------2---0-+-2---x2x2--------2-0---+
-----5-----+-------0---0----+-0--x000-----0-0-0---+-0----0-0-----0--0---2-+
-----3-----+--------------3-+-------------------3-+-----------------------+
-----------+----------------+---------------------+-----------------------+


-------------------------+------------------------+--------------------------+
-------------------------+------------------------+----------1---------------+
-------------------------+------------------------+-2--X2--X-----------------+
-2---2---2---2---0---0---+-2---2---2---2--0-0-----+-0---0-------------0--0---+
-0--x0--x0--x0---------2-+-0--X0--X0--X0--------3-+------------------------2-+
-------------------------+------------------------+--------------------------+


----------------------+-------------------------+----------------+
-----------0b---------+-------------------------+----------------+
-2--x2--x--1----0-0---+-------------------------+----------------+
-0---0--------------2-+-2--x2--x2--x2---0---0---+-2--x2--x-------+
----------------------+-0---0---0---0---------2-+-0---0-----2----+
----------------------+-------------------------+-----------0----+


-----------------------------+
-----------------------------+
-----------------------------+
2---2----2--2--2--x----2-----+
0---0----0--0--0-------0---5-+
-------3------------3------3-+


-171512----171512----1512----1512----1512-----------+
-------1512------1512----1512----1512----1412--1214-+
-----------------------------------------14--14--14-+
----------------------------------------------------+
----------------------------------------------------+
----------------------------------------------------+

-----------------------------+
-----------------------------+
-----------------------------+
2---2----2--2--2--x----2-----+
0---0----0--0--0-------0---5-+
-------3------------3------3-+

--5-5---5-5--5-----------10~-+----------------------------+-------------------17b-15b------|
-8----8-----8--8-8---5-------+----------------------------+----------------------------17--|
-----------------------------+----------------------------+-------------161719-------------|
-----------------------------+-2--2----2--2--2--x---2-----+-------161719-------------------|
-----------------------------+-0--0----0--0--0------0---5-+-151719-------------------------|
-----------------------------+-------3------------3-----3-+--------------------------------|

-----------------------------+---------+
-----------------------------+-----x\--+
-----------------------------+-----x\--+
2---2----2--2--2--x----2-----+---------+
0---0----0--0--0-------0---5-+-2-------+
-------3------------3------3-+-0-------+


------------------------------+--------------------------+-----------------------------------+
-14-14--14--14--14------------+--------------------------+-14---1412141214--1412141214/12----+
-14-141214--141214-121412-----+--------------------------+-14---1412141214--1412141214/12----+
-------------------------1412-+-12/14--1414/16--16/19-19-+--------------------------------14-+
------------------------------+---------x-x--------------+-----------------------------------+
------------------------------+-10/12--1212/14--14/17-17-+-----------------------------------+

-17-19--19-x-19---19h17-------+----------------------------------+-12--12--12---------------+
-----------------------19/\/\-+-14--14--14--14--14--14-----------+-15b-15b-15b--15121515\---+
------------------------------+-14--141214--14--141214121412-----+--------------------------+
------------------------------+-----------------------------1412-+--------------------------+
------------------------------+----------------------------------+--------------------------+
------------------------------+----------------------------------+--------------------------+

-------14151719------15171921------171921------192122+-------------+-----------+
-141517--------151719--------171920------192022------+-22b---22~~--+---------X-+
-----------------------------------------------------+-------------+-----------+
-----------------------------------------------------+-------------+-----------+
-----------------------------------------------------+-------------+-----------+
-------------------------------------------------------------------------------+


----12-12-----12-12-----+-----------+---------------------------+------+
----12-12-----12-12-----+-----------+---------------------------+------+
-14-------14--------14--+-----14\---+-14-12---x-14--------------+------+
------------------------+-----------+------14-------12-14-14-14-+--x---+
------------------------+-----------+---------------------------+------+
------------------------+-----------+---------------------------+------+

then..play this riff 4 times...
-------------------+------------------+---------------------+--------------------+
-------------------+------------------+---------------------+--------------------+
-4-----------------+------------------+---------------------+---------2/4-0------+
-2-----x-x-5-----7-+---------------xx-+-5-----x-x-7------9--+---------------4-0x-+
-2-----x-x-3-----5-+---------------xx-+-3-----x-x-5------7--+------------------x-+
-0-0-0-------0-0---+-0-0-0-0-0-0-0----+---0-0-------0-0-----+-0-0-0-3------------+

Nobody Hears the things...
------------------------+-------------------------+-----------------+----------------|
----------------9\7/9\--+-------7--9----9\7/9\----+-----------------+----------------|
----------------9\7/9\--+-------7--9----9\7/9\----+-----------------+----------------|
-4----7----9----9\7/9\--+-4-----7--9----9\7/9\----+-5---4---5---4---+-5---4---5---4--|
-2----5----7----7\------+-2-----5--7----7-------3-+---3---3---3---3-+---5---5---5--5-|
------------------------+-------------------------+-----------------+----------------|

      My heads so full.....
------------------------+-------------------------+-----------------+----------------|
----------------9\7/9\--+-------7--9----9\7/9\----+-----------------+----------------|
----------------9\7/9\--+-------7--9----9\7/9\----+-----------------+----------------|
-4----7----9----9\7/9\--+-4-----7--9----9\7/9\----+-5---4---5---4---+-5------4-x-x-x-|
-2----5----7----7\------+-2-----5--7----7-------3-+---3---3---3---3-+-5------5-x-x-x-|
------------------------+-------------------------+-----------------+----------------|


--------------------+-------------------------+----------------+----------------+
--------------------+-------------------------+----------------+----------------+
---------4----------+-2-----------------------+--------4-------+----------------+
--4------4--2-------+-2------4----------------+-4------4-------+-5---xx-5-4-5-4-+
--2-0-0-----2-------+--------2---0-/\/\/\/\/\-+-2----------2---+-3---xx-5---5---+
--------------0-0-3-+---0-3-------------------+----0-0-----0---+----------------+

--------------------+-------------------------+----------------+-------3-+---------+
--------------------+-------------------------+----------------+---------+---------+
---------4----------+-2-----------------------+--------4-------+---------+---------+
--4------4--2-------+-2------4----------------+-4------4-------+-5-------+-5--x----+
--2-0-0-----2-------+--------2---0-/\/\/\/\/\-+-2----------2---+-3-------+-3-------+
--------------0-0-3-+---0-3-------------------+----0-0-----0---+---------+---------+


Then play this riff 5 times...
breaking all the rules...
--------------------+----------------+-------------------+--------------+
--------------------+----------------+-------------------+--------------+
-4---------2-2--0-2-+----2-----------+-4---------2-2---2-+-2------------+
-2------------------+----------------+-2-------------0---+---------5----+
-2-x-------0-0----0-+----0--x-x-5-2--+-2-x-------0-0---0-+-0-----0-3----+
-0---0-0-0------3---+-------x-x-3-0--+-0---0-0-0-----3---+-----3------3-+


-----------------------+---------------+-------------------+---+
-----------------------+---------------+-------------------+---+
-4---------2--2-----2--+-2-------------+-----------2----2--+-2-+
-2---------------0-----+---------------+-2------------0----+---+
-2-x-------0--0-----0--+-0--xx-5-----2-+-2-x-------0----0--+-0-+
-0---0-0-0-------3-----+----xx-3-----0-+-0---0-0-0----3----+---+

5.BLOODBATH IN PARADISE

Tune down 1/2 step: Eb Ab Db Gb Bb Eb

                           use pedal wah
       slide    with hammer on and pull off
E ----------------------------------------------------------------------|
B ----------------------------------------------------------------------|
G -------/14--po-ho-po-ho-po-ho-po-----------5-4--------repeat-3x-------|
D --2-2------14-13-14-13-14-13-14-13--5-5-/7----7-6~--------------------|
A --0-0-------------------------------3-3-------------------------------|
E ----------------------------------------------------------------------|

E ----------------------------------------------------------------------|
B ----------------------------------------------------------------------|
G -------/14--po-ho-po-ho-po-ho-po----/13-------------------------------|
D --2-2------14-13-14-13-14-13-14-13------13-12~~~----------------------|
A --0-0-----------------------------------------------------------------|
E ----------------------------------------------------------------------|
                                bend and release
E ---------------------------------------------------------------------  }
B ------------------ho--ho---------------------------------------------  }
G --2-----4----5----4-5-4-5--2-----7^-7-5---0-1-------repeat-3x--------  }
D --2-----4----5----4-5-4-5--2-----7^-7-5---0-1------------------------  }
A ----000---00---00------------000-------------------------------------  }
E ----------------------------------------x----------------------------  }  2x
                           harmonic                         end         }
E ---------------------------------------------------------/------------ }
B -------------------------------------------------ho--ho--/---12-12-12- }
G --7-7-7-7-7-7--5-5-5-5-5-5-------2-----4----5----4-5-4-5-/---12-12-12- }
D --7-7-7-7-7-7--5-5-5-5-5-5-------2-----4----5----4-5-4-5-/------------ }
A --5-5-5-5-5-5--3-3-3-3-3-3---------000---00---00---------/------------ }
E ----------------------------3~---------------------------/-00--------- }
    Prechorus
E -----------------------------------------------------------------------|
B --po------po------po--------po------po------po-------------------------|
G --5-4-----7-5-----5-4---7~--5-4-----7-5-----5-4------------------------|
D --5-4-7-7-7-5-7-7-5-4-7-7~--5-4-7-7-7-5-7-7-5-4-7-5~-------------------|
A ------7-7-----7-7-----7---------7-7-----7-7-----7-5~-------------------|
E -----------------------------------------------------------------------|
                                      0.5
E -----------------------------------------------------------------------|
B --po------po------po---------------------------------------------------|
G --5-4-----7-5-----5-4---7~--5------------------------------------------|
D --5-4-7-7-7-5-7-7-5-4-7-7~--5------------------------------------------|
A ------7-7-----7-7-----7------------------------------------------------|
E ------------------------------000000--3^-------------------------------|
    Chorus                                  harmonic
E ----------------------------------3----3-----3~------------------------|
B ------------------------------------3----3-----------------------------|
G -------5~-----7~-----5~-----7~--------0----0---------------------------|
D -------5~-----7~-----5~-----7~-----------------------------------------|
A --0000---0000---0000---0000-----3---------------5-3-2-3-2--------------|
E ----------------------------------------------------------5-3----------|
                                             harmonic
E -----------------------------------------------------------------------|
B -----------------------------------------------------------------------|
G -------5~----7~-----5~-----7~-5---------7^-5-7^------------------------|
D -------5~----7~-----5~-----7~-5---------7^-5-7^------------------------|
A --0000---0000--0000--0000----------------------------------------------|
E ---------------------------------000000--------------------------------|


 On solo
E -----------------------------------------------------------------------|
B -----------------------------------------------------------------------|
G -----------------------------------------------------------------------|
D ------------------------------5-7--------------------------------------|
A --------5^5-3~------5^5~------3-5-7------------------------------------|
E --5-3-5-------5-3-5-----5-3-5-----5-5-5-5-5-5-5------------------------|

E -----------------------------------------------------------------------|
B -----------------------------------------------------------------------|
G -----------------------------------------------------------------------|
D ------------------------------7-9--------------------------------------|
A --------7^7-5~------7^7~------5-7-9------------------------------------|
E --7-5-7-------7-5-7-----7-5-7-----7-7-7-7-7-7-7------------------------|
     Solo                                              H     H   H    H
E ------------------------------------------------------------------------|
B --5-5---8-8---10-10--------5-5--8--8---10-10----------9~----9~--8~---9~-|
G --7^7^~10^10^~12^12^~--\17-7^7^~10^10^~12^12^~-/7-----------------------|
D -----------------------\17---------------------/7-9999-9999-9999-9999---|
A ------------------------------------------------------------------------|
E ------------------------------------------------------------------------|

E ------------------------------7-----7-----7-----7------15^15-15-14-13--|
B --12--14--15--17--19------12^---12^---12^---12^---12^------------------|
G --14^-16^-17^-19^-21^-16~----------------------------------------------|
D -----------------------------------------------------------------------|
A -----------------------------------------------------------------------|
E -----------------------------------------------------------------------|
   1.5  T      T      T      T      T      T      T      1.5
E -----------po----po-----po-----po-----po-----po-----po-----------------|
B --15^~-10-5-3-10-5-3-10-5-3-10-5-3-10-5-3-10-5-3-12-5-3-17^~-----------|
G -----------------------------------------------------------------------|
D -------------------------------------------------------------/16-------|
A -----------------------------------------------------------------------|
E -----------------------------------------------------------------------|

6.FIRE IN THE SKY

----------------------------|-----------------|-------------------------|-----|
----------------------------|-----------------|-------------------------|-----|
---------14--13-------------|-----------------|-----12--------12--------|-----|
-12--14--14--13--14--12-----|-14---12-12-12---|-----12--------12--------|-----|
-12--14--12--11--14--12-----|-14---12-12-12---|-----10--------10--------|-----|
-10--12----------12--10-----|-12---10-10-10---|-0-0----0--0-0----0--0-0-|-----|
 Intro/Chorus riff            1st time          2nd time

---------0--------0-----------------------------------------------------------|
-------0-------0----0---------------------------------------------------------|
-----2----------------2-------------------------------------------------------|
---2--------------------2-----------------------------------------------------|
-0------------------------0---------------------------------------------------|
------------------------------------------------------------------------------|
 Verse riff (clean)

-----8--7------------8--7-----------8--7--------------------------------------|
-----------10--------------10-------------10--9-------------------------------|
------------------------------------------------------------------------------|
-7--------------10--------------7-------------6-------------------------------|
-7--------------10--------------7-------------6-------------------------------|
-5--------------8---------------5-------------4-------------------------------|
 Pre-solo (2 guitars) part A

------------------------------------------------------------------------------|
------------------------------------------------------------------------------|
------------------------------------------------------------------------------|
-2---------------10----10----10----10----12------12------12------12-----------|
-2---------------10----10----10----10----12------12------12------12-----------|
-0------------88-8--88-8--88-8--88-8--88-10-1010-10-1010-10-1010-10-1010------|
 	      ..    ..    ..    ..    ..     ..     ..      ..       ..
Pre-solo part B

------------------------------------------------------------------------------|
------------------------------------------------------------------------------|
------------------------------------------------------------------------------|
--14---14---14---14---14--14--14--14---14---14---14---14-\--------------------|
--14---14---14---14---14--14--14--14---14---14---14---14-\--------------------|
--12-1212-1212-1212-1212--12--12--12-1212-1212-1212-1212-\--------------------|
     .     .    .    .                .    .    .    .
Pre-solo part B(cont.)

------------------------------------------------------------------------------|
------------------------------------------------------------------------------|
---------------------------2-2------------------------------------------------|
-3-----3ph-3-----3ph-3---------3ph-2ph----------------------------------------|
---4-5-------4-5-------4-5----------------------------------------------------|
------------------------------------------------------------------------------|
 Pre-solo part C

------------------------------------------------------------------------------|
------------------------------------------------------------------------------|
-14121412-------17151715-------19171917-------21192119------------------------|
---------1412-----------1715-----------1917-----------2119--------------------|
----X4-------------X4--------------X4-------------X4--------------------------|
------------------------------------------------------------------------------|
 Solo

-15121512-------17151715-------191715-15vvvv----------------------------------|
---------1513-----------1715--------------------------------------------------|
------------------------------------------------------------------------------|
---X4--------------X4------------X8-------------------------------------------|
------------------------------------------------------------------------------|
------------------------------------------------------------------------------|
 Solo (cont.)

|------------------------------------------------------------------------------|
|------------------------------------------------------------------------------|
|-7b--bend full, slowly release and rebend full--------------------------------|
|----------------------(do this twice, listen to song for timing---------------|
|------------------------------------------------------------------------------|
|------------------------------------------------------------------------------|
|
|
|----1-----1-----1-----1-------3-----3-----3-----3-----------------------------|
|-------3-----------3-------------3-----------3--------------------------------|
|-2-----------2-------------2-----------2--------------------------------------|
|------------------------------------------------------------------------------|
|-------X2--------------------------X2-----------------------------------------|
|------------------------------------------------------------------------------|
|
|
|------------------------------------------------------------------------------|
|------------------------------------------------------------------------------|
|------------------------------------------------------------------------------|
|---all these notes are VERY heavily muted-------------------------------------|
|----------------------------------------------------------------10-10-8-8-----|
|-10-10-13-13-12-13-----00000-----00----10-10-13-13-12-----10-10-----------10--|
 Post-solo interlude (3 guitars)

back to chorus riff

7.TATTOOED DANCER

Tune down 1/2 step: Eb Ab Db Gb Bb Eb

Main Riff:
|-----/---|-------------------------------------------------------|
|----/----|-------------------------------------------------------|
|---/-----|-------------------------------------------------------|
|--/------|------------------8ph/7--------------------------------|
|-/scrape-|-7-7--87667--5-7--6ph/5--7-7--87665-5-7-7--0656--------|
|/--------|-5-5---------3-5---------5-5--------3-5-5--------------|

Secondary Riff:

|----------------------------------------|
|----------------------------------------|
|--7-9-10--7-9-10--7-9-10--7-9-10-------.|
|----------------------------------5-5--.|
|----------------------------------3-3---|
|----------------------------------------|

Bridge:                 X4-----------------------|
|-------------------/--|-------------------------|
|------------------/---|-----5-----7-----8-7-----|
|-----------------/----|-----5-----7-----8-7-----|
|--7-10-9-12-12--/-----|-----5-----7-----8-7-----|
|--5-8--7-10-10-/scrape|-7-7---7-7---7-7---------|
|----------------------|-5-5---5-5---5-5---------|

Interlude:
|--------------------------------------------------|
|--------------------------------------------------|
|-------------------------------------------------.|
|-------------------5-3--5ph-3-5-3-5-3--7--3------.|
|-5ph--3-5-3-5-3-5--3-1--3ph-1-3-1-3-1--5--1--5----|
|-3ph--1-3-1-3-1-3----------------------------3----|

|--------------------------------------------------|
|--------------------------------------------------|
|-5ph---5---5--8--7/8\7/8\7/8\7--------------------|
|-3ph-0-3-0-3--6--5/6\5/6\5/6\5--5-3-5-3-5-3-5-3---|
|--------------------------------3-1-3-1-3-1-5-1-5-|
|------------------------------------------------3-|

|--------------------------------------------------------------------|
|--------------------------------------------------------------------|
|--------------------------------------------------------------------|
|--------------------------------------------------------------------|
|-2-3----------------------------------------------------------------|
|-0-1-1-111-111-111-111-111-111-111-111-111-111-111-111 etc etc etc--|

8.DEMON ALCOHOL

Tune down 1/2 step: Eb Ab Db Gb Bb Eb

|-------------------------------------------|-------------------------|
|-------------------------------------------|-------------------------|
|------------------------------------------.|-------------------------|
|-7-5-7------------------------------------.|--7-5-7------------------|
|-5-3-5--3-------5ph--3-------5ph--3--------|--5-3-5--3---------------|
|----------5-4-5--------5-4-3--------5-4-3--|-----------5-4-3-3hold---|

|---------------------------------------------------------------------|
|---------------------------------------------------------------------|
|---------------------------------------------------------------------|
|-7-5-7-------7-5-7-------7-5-7-------7-5-7-------5-5-7-------7-5-7---|
|-5-3-5--5555-5-3-5--5555-5-3-5--5555-5-3-5--5555-3-3-5--5555-5-3-5---|
|---------------------------------------------------------------------|

|-------------------------------------------------------------------------------|
|-------------------------------------------------------------------------------|
|-------------------------------------------------------------------------------|
|-----------------5-7-----5-7--5-5-5-3-3-3-5-5-5--7------5-7--5-5-5-3-3-3-5-5-5-|
|-3-------3-------3-5-7-5-3-5--3-3-3-1-1-1-3-3-3--5--7-5-3-5--3-3-3-1-1-1-3-3-3-|
|---5-4-3---5-4-3-----5-3----------------------------5-3------------------------|

|---------------------------|
|-I'm your Demon Alcohol...-|
|---------------------------|
|--7------------------------|  Repeat from beginning of song
|--5hold--------------------|  then read from '2nd time'
|---------------------------|

2nd Time
|---------------------------|
|-I'm your Demon Alcohol...-|
|---------------------------|
|-7-------------------------|
|-5hold---------------------|
|---------------------------|

<========================================x2
|-----------------------------------------|
|-....Let's Party!------------------------|
|-----------------------------------------|
|-----------------------------------------|
|-12-10-9--10-8-7--12-10-9-8-7-8-10-10-10-|
|-10-8--7--8--6-5--10-8--7-6-5-6-8--8--8--|

Bridge
|--------------------------------------------\-----------|
|---------------------------------------------\-slide----|
|-19---17----16----17-16-14---17----16----14---\--14-----|
|-17---15----14----15-14-12---15----14----12----\-12-----|
|---00----00----00---------------00----00----------------|
|--------------------------------------------------------|

|--------------------------------------------------------|
|--------------------------------------------------------|
|-10----17----16----17-16-14---17-16-17-16-17-16---------|
|-17----15----14----15-14-12---15-14-15-14-15-14---------|
|----00----00----00--------------------------------------|
|--------------------------------------------------------|

9.HERO

Don't Know
Comments