Ozzy Osbourne - No More Tears Chords & Tabs

 

No More Tears Chords & Tabs

Ozzy Osbourne Chords & Tabs

Version: 3 Type: Tab 0 ratings
1 star 2 stars 3 stars 4 stars 5 stars
comments

No More Tears Tab

   
                                  NO MORE TEARS
                          As recorded by Ozzy Osbourne
                       (From the 1991 Album NO MORE TEARS)

Gtr I (C# G# C# F# A# D#) - 'Zakk Wylde - rhythm heavy dist electric'
Gtr II (C# G# C# F# A# D#) - 'Zakk Wylde - lead heavy dist electric'

 Intro
  Q=104
 4/4
  Gtr II
|---------|--10\--13s14\----|------------|
|---------|--10\--13s14\----|------------|
|---------|-----------------|--------15\-|
|---------|-----------------|--------15\-|
|---------|-----------------|------------|
|---------|-----------------|------------|


|------------|------------|------------|-----|
|------------|------------|------------|-----|
|-14\--------|------8s=12s|=10\--------|-----|
|-14\--------|------8s=12s|=10\--------|-----|
|------------|------------|------------|-----|
|------------|------------|------------|-----|


                                                  ~~
|-------------||-----------------|-----------------------|
|-------------||o----------------|-----------------------|
|---3/----10--||--7----12S=11S12-|-(12)-11------------7s=|
|---3/----10--||--7--------------|---------12----10---7s=|
|-------------||o----------------|------------12-10------|
|-------------||-----------------|-----------------------|


                                              Verse
                                Gtrs I, II
   ~~               ~~
|----------------|-----13\-------||----------|-----|
|----------------|-----13\------o||----------|-----|
|-10----(10)-7---|-12------------||----------|-----|
|-10----(10)-7---|-12------------||-0--------|-----|
|----------------|--------------o||-0--------|-----|
|----------------|---------------||-0--------|-----|


  $
  Gtr I
                                              ~~~
|------------|----------------|-------------------|----------|
|------------|----------------|-------------------|----------|
|------------|----------------|-------------------|----------|
|------------|-6------------6-|-(6)---------------|-0--------|
|------0-3-0-|-6--5-3-5-3---6-|-(6)--5------------|-0--------|
|------0-3-0-|-6--5-3-5-3-0-6-|-(6)--5-3-5-3-(3)--|-0--------|


                                   ~~
|--------------|---------------------|----------------------||-----------|
|--------------|---------------------|----------------------||o----------|
|------0-/10-0-|-13--12-10-12-10--13-|-(13)--12-10-12-10\---||-----------|
|------0-/10-0-|-13--12-10-12-10--13-|-(13)--12-10-12-10\---||--0--------|
|--------------|---------------------|----------------------||o-0--------|
|--------------|---------------------|----------------------||--0--------|


                                              ~~~
|------------|----------------|-------------------|----------|
|------------|----------------|-------------------|----------|
|------------|----------------|-------------------|----------|
|------------|-6------------6-|-(6)---------------|-0--------|
|------0-3-0-|-6--5-3-5-3---6-|-(6)--5------------|-0--------|
|------0-3-0-|-6--5-3-5-3-0-6-|-(6)--5-3-5-3-(3)--|-0--------|


                                                              Pre-Chorus
                                   ~~~~~~~~~
|--------------|---------------------|----------------------||--------------|
|--------------|---------------------|----------------------||------------5-|
|------0-/10-0-|-13--12-10-12-10--13-|-(13)--12-10-12-10\---||------------4-|
|------0-/10-0-|-13--12-10-12-10--13-|-(13)--12-10-12-10\---||-0----------2-|
|--------------|---------------------|----------------------||-0----------2-|
|--------------|---------------------|----------------------||-0----0-0-0-2-|


|--------------------|----------------|--------------------------------------|
|-(5)----------------|-6--------------|--------------------------------------|
|-(4)----------------|-5------------3-|-(3)-------3h5p3h5p3h5p3h5p3h5p3-(3)--|
|-(2)----------------|-3------------3-|-(3)---3S5----------------------------|
|-(2)----------------|-5------------1-|-(1)----------------------------------|
|-(2)--0-0-0-0-0-0-0-|-3--0-0-0-0-0---|--------------------------------------|


|--------------|--------------------|
|------------5-|-(5)----------------|
|------------4-|-(4)----------------|
|-0----------2-|-(2)----------------|
|-0----------2-|-(2)----------------|
|-0----0-0-0-2-|-(2)--0-0-0-0-0-0-0-|


|----------------|---------------------------|
|-6--------------|---------------------------|
|-5------------3-|-3-3h5p3h5p3-(3)-4-(4)\----|
|-3------------3-|-3---------------4-(4)\----|
|-5------------1-|-1-------------------------|
|-3--0-0-0-0-0---|---------------------------|


                              Chorus
  ~
|------------|-----13\------||---------------|------------------|
|-9----------|-10--13\------||---------------|------------------|
|-9------5/--|-10-----------||---7----5----4-|-(4)---3----------|
|-9------5/--|-10-----------||-0----0----0---|-----0-3----------|
|------------|--------------||---------------|----------5-6-5-3-|
|------------|--------------||---------------|----------5-6-5-3-|


|---------------|------------------|---------------|------------------|
|---------------|------------------|---------------|------------------|
|---7----5----4-|-(4)---3----------|---7----5----4-|-(4)---3----------|
|-0----0----0---|-----0-3----------|-0----0----0---|-----0-3----------|
|---------------|----------5-6-5-3-|---------------|----------5-6-5-3-|
|---------------|----------5-6-5-3-|---------------|----------5-6-5-3-|


                          To Coda
|---------------|-------------------||
|---------------|------------------o||
|---7----5----4-|-(4)---3-----------||
|-0----0----0---|-----0-3-----------||
|---------------|----------5-6-5-3-o||
|---------------|----------5-6-5-3--||


|----------|------------|------------|-----||
|----------|------------|------------|-----||
|----------|------------|------------|-----||
|-0--------|-(0)--------|-(0)--------|-----||
|-0--------|-(0)--------|-(0)--------|-----||
|-0--------|-(0)--------|-(0)--------|-----||


 Interlude
  Q=76
           3/4       4/4
|---------|---------|-----||
|---------|---------|-----||
|---------|---------|-----||
|---------|---------|-----||
|---------|---------|-----||
|---------|---------|-----||


 Guitar Solo
   ~~
|---------------------|------------------------|-----------------------------|
|------------------10-|------------------------|-----------------------------|
|-11----11-12-(12)----|-12b14-(12)--12--11--9--|-10----(10)-12b14-(12)-12p10-|
|---------------------|------------------------|-----------------------------|
|---------------------|------------------------|-----------------------------|
|---------------------|------------------------|-----------------------------|


                                   ~~
|-------------------------------|---------------------|
|-------------------------------|------------------10-|
|-12b14-(12)----12--12b14-12p10-|-11----11-12-(12)----|
|-------------------------------|---------------------|
|-------------------------------|---------------------|
|-------------------------------|---------------------|


|----------------------------------|-----------------15b17-15p13---|
|-13b15-(13)------(13)-15b17-15p13-|-15b17-(15)--------------------|
|----------------------------------|-------------------------------|
|----------------------------------|-------------------------------|
|----------------------------------|-------------------------------|
|----------------------------------|-------------------------------|


                                                                                                   a
                                                                        ~~~~
|-15b17-15b17-(15)-----15b17-(15)---15b17-(15)---|-15b17-(15)---15b17-(15)---15b17-15-13-14------x-|
|------------------------------------------------|--------------15b17-(15)------------------15---x-|
|------------------------------------------------|-------------------------------------------------|
|------------------------------------------------|-------------------------------------------------|
|------------------------------------------------|-------------------------------------------------|
|------------------------------------------------|-------------------------------------------------|
|
| Gtr II
|------------------------------------------------|-------------------------------------------------|
|------------------------------------------------|-------------------------------------------------|
|------------------------------------------------|-------------------------------------------------|
|--5------------5--5-5---------5--5---------5--5-|---------5--5---------5--5--5--------5-----5-5---|
|--5------------5--5-5---------5--5---------5--5-|---------5--5---------5--5--5--------5-----5-5---|
|--5------------5--5-5---------5--5---------5--5-|---------5--5---------5--5--5--------5-----5-5---|

[ Tab from: http://www.guitartabs.cc/tabs/o/ozzy_osbourne/no_more_tears_tab_ver_3.html ]
  tempo Q=104
|-------------10------------------10--------------------|
|-13b15-(13)-----13-10----------------------------12----|
|----------------------12b14-(12)----12-12-10-----12----|
|----------------------------------------------12----12-|
|-------------------------------------------------------|
|-------------------------------------------------------|
|
|-------------------------------------------------------|
|-------------------------------------------------------|
|-------------------------------------------------------|
|---------3----3---------------5------3----(3)-----0----|
|---------3----3---------------5------3----(3)-----0----|
|---------3----3---------------5------3----(3)-----0----|


|-----------------------------------------------------|
|-10b10.5------------------------12----10----(10)-----|
|-10---------------13-12---10----12----10b11-(10)-----|
|---------12-10-12------------12----12------------12--|
|-----------------------------------------------------|
|-----------------------------------------------------|
|
|-----------------------------------------------------|
|-----------------------------------------------------|
|---------------------------------5-------------------|
|-(0)------------0----------------5-----0----------0--|
|-(0)------------0----------------3-----0----------0--|
|-(0)------------0-------0--------------0----------0--|


|------------------------------------------------------|
|-------------12------------12----10----(10)--------13-|
|-13p12p10----12---12-10----12----10b11-(10)-----------|
|----------12------------12----12------------12--10----|
|------------------------------------------------------|
|------------------------------------------------------|
|
|------------------------------------------------------|
|------------------------------------------------------|
|------------------------------------------------------|
|--3-------------3-----------5-----3---------(3)-----0-|
|--3-------------3-----------5-----3---------(3)-----0-|
|--3-------------3-----------5-----3---------(3)-----0-|


|------10-------------10---------------------------------------|
|-(13)----13-10----------13p10---------10----------------------|
|---------------12b14----------12b12.5----12b14-12p10-12p10----|
|-----------------------------------------------------------12-|
|--------------------------------------------------------------|
|--------------------------------------------------------------|
|
|--------------------------------------------------------------|
|--------------------------------------------------------------|
|---------------------------------------5----------------------|
|--(0)-----------0----------------------5--------0-----0-------|
|--(0)-----------0----------------------3--------0-----0-------|
|--(0)-----------0--------0----------------------0-----0-------|


|-15b17-(15)----15b17-15-13----15----13b14-13----15b17--|
|---------------------------15----15----------15--------|
|-------------------------------------------------------|
|-------------------------------------------------------|
|-------------------------------------------------------|
|-------------------------------------------------------|
|
|-------------------------------------------------------|
|-------------------------------------------------------|
|-------------------------------------------------------|
|---------3---3-----------5-----3----(3)-------0--------|
|---------3---3-----------5-----3----(3)-------0--------|
|---------3---3-----------5-----3----(3)-------0--------|


|-(15)----15b17----15b17-(15)---15b17-15-13b14-13-----|
|------15-------15--------------------------------15--|
|-----------------------------------------------------|
|-----------------------------------------------------|
|-----------------------------------------------------|
|-----------------------------------------------------|
|
|-----------------------------------------------------|
|-----------------------------------------------------|
|--------------------------------5--------------------|
|---0----------------------0-----5--------0--------0--|
|---0----------------------0-----3--------0--------0--|
|---0----------------------0--0-----------0--------0--|


|-13-10-13-10-------13-10-13-10-------13-10-13-10-------13-10-13-10--------|
|-------------13-10-------------13-10-------------13-10-------------13-10--|
|--------------------------------------------------------------------------|
|--------------------------------------------------------------------------|
|--------------------------------------------------------------------------|
|--------------------------------------------------------------------------|
|
|--------------------------------------------------------------------------|
|--------------------------------------------------------------------------|
|--------------------------------------------------------------------------|
|--3-----------------------------------------------------------------------|
|--3-----------------------------------------------------------------------|
|--3-----------------------------------------------------------------------|


|-15-13-15-13-------15-13-15-13-------15-13-15-13-------15-13-15-13-------|
|-------------15-13-------------15-13-------------15-13-------------15-13-|
|-------------------------------------------------------------------------|
|-------------------------------------------------------------------------|
|-------------------------------------------------------------------------|
|-------------------------------------------------------------------------|
|
|-------------------------------------------------------------------------|
|-------------------------------------------------------------------------|
|-------------------------------------------------------------------------|
|--5----------------------------------------------------------------------|
|--5----------------------------------------------------------------------|
|--5----------------------------------------------------------------------|


|-17-15-17-15-------17-15-17-15-------17-15-17-15-------17-15-17-15-------|
|-------------18-15-------------18-15-------------18-15-------------18-15-|
|-------------------------------------------------------------------------|
|-------------------------------------------------------------------------|
|-------------------------------------------------------------------------|
|-------------------------------------------------------------------------|
|
|-------------------------------------------------------------------------|
|-------------------------------------------------------------------------|
|--2----------------------------------------------------------------------|
|--2----------------------------------------------------------------------|
|--0----------------------------------------------------------------------|
|-------------------------------------------------------------------------|


|-18-15-13----18-15-13----18-15-13----18-15-13----20-17-15----20-17-15----20-17-15----20-17-15----|
|----------15----------15----------15----------15----------17----------17----------17----------17-|
|-------------------------------------------------------------------------------------------------|
|-------------------------------------------------------------------------------------------------|
|-------------------------------------------------------------------------------------------------|
|-------------------------------------------------------------------------------------------------|
|
|-------------------------------------------------------------------------------------------------|
|-------------------------------------------------------------------------------------------------|
|--3-----------------------------------------------5----------------------------------------------|
|--3-----------------------------------------------5----------------------------------------------|
|--1-----------------------------------------------3----------------------------------------------|
|-------------------------------------------------------------------------------------------------|


|----------||
|----------||
|----------||
|----------||
|----------||
|----------||
|
|----------||
|----------||
|-7--------||
|-7--------||
|-5--------||
|----------||


  Gtr II
|---------|-----------|----------------|
|---------|-----------|-7----8\--7-8---|
|---------|------5\---|-7--------------|
|---------|------5\---|-7--------------|
|---------|-----------|----------------|
|---------|-----------|----------------|


                                     D.S. al Coda
            ~~~~~~~~~~~~~~~~~~            ~~~
|----------------|-----------------|-----15\-------||
|-(8)-7----------|-----------------|-----15\-------||
|-------7---5----|-10----(10)---9\-|-12------------||
|---------7-5----|-10----(10)---9\-|-12----------0-||
|----------------|-----------------|-------------0-||
|----------------|-----------------|-------------0-||


   Outro
    &
    Gtr I
                                      3x
||----------------|-------------------||------*|
||o---------------|------------------o||------*|
||-----7---5----4-|-(4)---3-----------||-2----*|
||--0----0----0---|-----0-3-----------||-0----*|
||o---------------|----------5-6-5-3-o||-0----*|
||----------------|----------5-6-5-3--||-0----*|


Tablature Legend
----------------
 h   - hammer-on
 p   - pull-off
 b   - bend
 pb  - pre-bend
 r   - bend release (if no number after the r, then release immediately)
 /\  - slide into or out of (from/to "nowhere")
 s   - legato slide
 S   - shift slide
  - natural harmonic
[n]  - artificial harmonic
n(n) - tapped harmonic
 ~   - vibrato
 tr  - trill
 T   - tap
 TP  - trem. picking
 PM  - palm muting
\n/  - tremolo bar dip; n = amount to dip
 \n  - tremolo bar down
 n/  - tremolo bar up
/n\  - tremolo bar inverted dip
 =   - hold bend; also acts as connecting device for hammers/pulls
 <>  - volume swell (louder/softer)
 x   - on rhythm slash represents muted slash
 o   - on rhythm slash represents single note slash

Misc Legend
-----------
 |  - bar
||  - double bar
||o - repeat start
o|| - repeat end
*|  - double bar (ending)
 :  - bar (freetime)
 $  - Segno
 &  - Coda
Tempo markers -  = BPM(8/16=s8/s16), where s8 = swing 8ths, s16 = swing 16ths
Comments