Ozzy Osbourne - No Easy Way Out Chords & Tabs

 

No Easy Way Out Chords & Tabs

Ozzy Osbourne Chords & Tabs

Version: 1 Type: Tab 0 ratings
1 star 2 stars 3 stars 4 stars 5 stars
comments

No Easy Way Out Tab

Song: No Easy Way Out
Artist: Ozzy Osbourne
Tabbed by: Travis (cherginator)


e|--------------------------------------------------|
B|--------------------------------------------------|
G|------0-----0-0-----------------------------------|
D|----0-----0---0-----------------------------------| X 3
A|--3-----2-----1-----------------------------------|
E|--------------------------------------------------|
[ Tab from: http://www.guitartabs.cc/tabs/o/ozzy_osbourne/no_easy_way_out_tab.html ]
e|-------------------------------------------|
B|-------------------------------------------|
G|-------------------------------------------|
D|-3--5-5------------------------------------|
A|-3--5-5------------------------------------|
E|-1--3-3------------------------------------|

this part is the main riff for the whole song
e|--------------------------------------------------------|
B|--------------------------------------------------------|
G|--------------------------------------------------------|
D|---5-5-5-8-8-8--3-5-------------------------------------|  
A|---5-5-5-8-8-8--3-5-------------------------------------|
E|---3-3-3-6-6-6--1-3-------------------------------------|

hope you enjoy playing this song, email me at dark_edge7@hotmail.com if you have any 
thanks
                           -Travis
Comments