Ozzy Osbourne - Mr Crowley Chords & Tabs

 

Mr Crowley Chords & Tabs

Ozzy Osbourne Chords & Tabs

Version: 4 Type: Tab 0 ratings
1 star 2 stars 3 stars 4 stars 5 stars
comments

Mr Crowley Tab

   
MR CROWLEY (Live)
As recorded by Ozzy Osbourne
(From the 1987 Album TRIBUTE)


 Words and Music by Ozzy Osbourne, Randy Rhoads and Bob Daisley
 

Dm
x 5 0 2 3 1 Am
5 0 2 2 1 0 Em
0 14 14 0 12 12 Asus4
x 0 0 2 3 0 



   Intro
    Moderately Q=94
    Dm              Am               F
   4/4
    Gtr I
     Q.   E Q  Q     Q.   E Q  E E    Q.   E Q  Q
||----------------|----------------|---------------|
||o---------------|----------------|---------------|
||----------------|--2---------2-0-|------------4--|
||---0----2-3--5--|-------2--------|--3----5-7-----|
||o---------------|---------0------|---------------|
||----------------|----------------|---------------|
|
|   Gtr II
|    W               W                W
||--22------------|-20-------------|-13------------|
||o-22------------|-22-------------|-13------------|
||----------------|-21-------------|-10------------|
||--12------------|-19-------------|---------------|
||o-12------------|----------------|---------------|
||----------------|----------------|---------------|


  C                Am              Em
   Q.   E Q  E E    Q.   E Q  Q     Q  Q  H
|----------------|---------------|-------------|
|----------------|---------------|-------------|
|--5---------5-4-|-------4-5--7--|--9----------|
|-------5--------|--7------------|-----9-------|
|---------3------|---------------|--------7----|
|----------------|---------------|-------------|
|
|  W                W               W
|----------------|---------------|-12----------|
|-13-------------|-13------------|-12----------|
|-12-------------|-14------------|-12----------|
|-10-------------|-14------------|-14----------|
|----------------|-12------------|-14----------|
|----------------|---------------|-12----------|


                                        1.               2.
  A    Bb F5   G5  F5 E5 F5   Asus4      A
  H    Q  Q     Q  Q  Q  Q    W          +H.      E E     W
|------------|--------------|----------|---------------||------||
|------------|--------------|----------|--------------o||------||
|---------5--|--7--5--4--5--|-2--------|-(2)-----------||------||
|-7----8--3--|--5--3--2--3--|----------|----------3-2--||-2----||
|------------|--------------|----------|--------------o||------||
|-5----6--1--|--3--1--0--1--|----------|---------------||------||
|
| H    Q  Q     Q  Q  Q  Q    W           W               W
|---------8--|-10--8--7--8--|-0--------|---------------||------||
|---------6--|--8--6--5--6--|-3--------|--2-----------o||-2----||
|-2----3-----|--------------|-2--------|--2------------||-2----||
|-2----3-----|--------------|-0--------|--2------------||-2----||
|-0----1-----|--------------|-0--------|--0-----------o||-0----||
|------------|--------------|----------|---------------||------||


 Verse I
  Slightly Faster Q=106
  D5               D5                 Bb5
  Gtr III
                                                ~~        PM-----|
         |-3--|
  H     +Q  Q Q    H     Q    +Q       Q     E  Q    +E   S S  S S
|----------------|------------------|-------------------------------|
|----------------|------------------|-------------------------------|
|-7-----(7)------|-7----------------|--3--------3----(3)------------|
|-7-----(7)------|-7----------------|--3--------3----(3)------------|
|-5-----(5)-0----|-5----------------|--1--------1----(1)--1-3--1-0--|
|-------------1--|------18---(18)\--|-------------------------------|
|
| Gtr VI
|        |-3--|
| H      Q  Q Q    H    +Q     Q       E  E  E  E  H
|----------------|------------------|-------------------------------|
|----------------|------------------|-------------------------------|
|-5----/13\-0----|-5----(5)---13\---|--1-----x--1-------------------|
|-------------1--|------------------|-------------------------------|
|
| Gtr II
| H      H         W                   E  E  E  E  E  E   E    E
|----------------|------------------|-13-10----13-10-----13---------|
|----------------|------------------|-------11-------11-------11----|
|----------------|------------------|-------------------------------|
|----------------|------------------|-------------------------------|
|-5--------------|-5----------------|-------------------------------|
|----------------|------------------|-------------------------------|


  Bb5                            D5
            ~~       ~~
               |--3--|                 |-3--|
   Q     E  E +Q     H           H    +Q  Q Q
|------------------------------|---------------|
|------------------------------|---------------|
|--3--------3-(3)--------------|-7----(7)------|
|--3--------3-(3)--------------|-7----(7)------|
|--1--------1-(1)----3---------|-5----(5)-0----|
|------------------------------|------------1--|
|
|                  |-3-|               |-3--|
|  E  E  E  E +E   S S S  Q      H     Q  Q Q
|------------------------------|---------------|
|------------------------------|---------------|
|--1-----x--1-(1)--0h1p0--3----|-5----/9\-0----|
|------------------------------|------------1--|
|
|  E  E  E  E  E   E      E  E   H     H
|-13-10----13-10---------13----|---------------|
|-------11--------11--------11-|---------------|
|------------------------------|---------------|
|------------------------------|---------------|
|------------------------------|-5-------------|
|------------------------------|---------------|


  D5
                               ~~        PM-----|
  H     Q    +Q       Q     E  Q    +E   S S  S S
|------------------|------------------------------|
|------------------|------------------------------|
|-7----------------|--3--------3----(3)-----------|
|-7----------------|--3--------3----(3)-----------|
|-5----------------|--1--------1----(1)--1-3--1-0-|
|------22---(22)\--|------------------------------|
|
| H    +Q     Q       E  E  E  E  H
|------------------|------------------------------|
|------------------|------------------------------|
|-5----(5)----5\---|--1-----x--1------------------|
|------------------|------------------------------|
|
| W                   E  E  E  E  E  E   E    E
|------------------|-13-10----13-10-----13--------|
|------------------|-------11-------11-------11---|
|------------------|------------------------------|
|------------------|------------------------------|
|-5----------------|------------------------------|
|------------------|------------------------------|


  Bb5                         C5
            ~~~
   Q     E  Q.         E  E   Q   E Q.     E E
|---------------------------|------------------|
|---------------------------|------------------|
|--3--------3-------------3-|-5---5-5------3-5-|
|--3--------3-------------3-|-5---5-5------3-5-|
|--1-----0--1-------------1-|-3---3-3------1-3-|
|---------------------------|------------------|
|
|  E  E  E  E  +Q      Q      Q   E E  E E E E
|---------------------------|------------------|
|---------------------------|------------------|
|--1-----x--1--(1)----------|-3\---------------|
|---------------------------|-----0-0--1-1-2-3-|
|
|  E  E  E  E   E   E  E  E   W
|-13-10----13--10-----13----|------------------|
|-------11---------11----11-|------------------|
|---------------------------|------------------|
|---------------------------|------------------|
|---------------------------|------------------|
|---------------------------|------------------|


                        Dm
  +Q    E S S E E E E   H     +Q.     E
|---------------------|-----------------|
|-------------5---6p5-|-----------------|
|-(5)---------5---5---|-7-----(7)-------|
|-(5)---------5---7p5-|-7-----(7)----/x-|
|-(3)-----5h7---------|-5-----(5)-------|
|---------------------|-----------------|
|
|  E  E E E   E E E E   q  q   q   q
|---------------------|-----------------|
|---------------------|-----------------|
|--3--3---------------|-5--5---5---5----|
|-------0-0---1-1-3-5-|-----------------|
|
|  W                    W
|---------------------|-----------------|
|---------------------|-----------------|
|---------------------|-----------------|
|---------------------|-----------------|
|---------------------|-----------------|
|---------------------|-----------------|


                        C5                                        Bb5
              ~              PM       PM            PM|
  S S E E E a Q  a Q    Q    E Q.     E E   +Q.     S S Q   Q     Q  H     E E
|---------------------|-------------------|---------------------|--------------|
|-----5-6-5-6s8--8s6--|-------------------|---------------------|--------------|
|-----5-7-5-7s9--9s7--|-5------5--------5-|-(5)---------5---5---|-3--3---------|
|-5h7-----------------|-5------5--------5-|-(5)---------5---5---|-3--3-------3-|
|---------------------|-3----0-3------0-3-|-(3)-----0-1-3---3---|-1--1-------1-|
|---------------------|-------------------|---------------------|--------------|
|
| E   E E E A Q  A Q    E E  E E  E E E E    E  E E E   E E E E   q  q  q  q
|---------------------|-------------------|---------------------|--------------|
|---------------------|-------------------|---------------------|--------------|
|-5---5-5-3-5s7--7s5--|-3-3\--------------|--3--3---------------|-1--1--1--1---|
|---------------------|------0-0--1-1-2-3-|-------0-0---1-1-2-3-|--------------|


                             Verse II
                              D5
  \0.5
                                    |--3---|
  Q     +E  +E   Q   +Q       H    +Q  Q E E
|--------------------------||----------------|
|--------------------------||----------------|
|--------------------------||-7----(7)-------|
|--------------------------||-7----(7)-------|
|-0-----(0)-(0)------------||-5----(5)-0-----|
|---------------17--(17)\--||------------1p0-|
|
|                                   |-3--|
| W                           H    +Q  Q Q
|--------------------------||----------------|
|--------------------------||----------------|
|-0------------------------||-5----(5)-0-----|
|--------------------------||------------1---|
|
| Gtr II
| W                           H     H
|--------------------------||----------------|
|--------------------------||----------------|
|--------------------------||----------------|
|--------------------------||----------------|
|--------------------------||-5--------------|
|--------------------------||----------------|


                                                     Bb5
       Gtr IV                                        Gtr III
       TPTPTPTP TP TPTPTPTPTPTPTPTPTPTPTP TP TPTPTP            ~~~~~~      PM-----|
  Q.   T T T T  T  T T T T T T T T T T T  T  T T T    Q     E  E +E.    S  S S  S S
|--------------------------------------------------|---------------------------------|
|------xsxsxsxs=xs=xsxsxsxsxsxsxsxsxsxsxs=xs=xsxsx-|---------------------------------|
|-7----xsxsxsxs=xs=xsxsxsxsxsxsxsxsxsxsxs=xs=xsxsx-|--3--------3-(3)-----------------|
|-7------------------------------------------------|--3--------3-(3)-----------------|
|-5------------------------------------------------|--1-----0--1-(1)----x--1-3--1-0--|
|--------------------------------------------------|---------------------------------|
|
| H            +Q.                        E           E  E  E  E  Q        q
|--------------------------------------------------|---------------------------------|
|--------------------------------------------------|---------------------------------|
|-5------------(5)-----------------------13\-------|--1-----x--1-----------1---------|
|--------------------------------------------------|---------------------------------|
|
| W                                                   E  E  E  E  E   E    E    E
|--------------------------------------------------|-13-10----13-10-------13---------|
|--------------------------------------------------|-------11--------11--------11----|
|--------------------------------------------------|---------------------------------|
|--------------------------------------------------|---------------------------------|
|-5------------------------------------------------|---------------------------------|
|--------------------------------------------------|---------------------------------|


  Bb5                        D5
                  ~~~                   ~
                                   |-3--|
   Q     E  Q     Q.         H    +Q  Q Q
|--------------------------|---------------|
|--------------------------|---------------|
|--3--------3--------------|-7----(7)------|
|--3--------3--------------|-7----(7)------|
|--1-----0--1-----3--------|-5----(5)-0----|
|--------------------------|------------1--|
|
|                                  |-3--|
|  E  E  E  Q     Q.         H    +Q  Q Q
|--------------------------|---------------|
|--------------------------|---------------|
|--1-----0--1-----3--------|-5----(5)-0----|
|--------------------------|------------1--|
|
|  E  E  E  E  E  E   E  E   H     H
|-13-10----13-10-----13----|---------------|
|-------11-------11-----11-|---------------|
|--------------------------|---------------|
|--------------------------|---------------|
|--------------------------|-5-------------|
|--------------------------|---------------|


                    Bb5
                              ~~~~~~    PM-----|
  H      H           Q     E  E +Q      S S  S S
|-----------------|--------------------------------|
|-----------------|--------------------------------|
|-7---------------|--3--------3-(3)----------------|
|-7---------------|--3--------3-(3)----------------|
|-5----/20\-------|--1-----0--1-(1)-----1-3--1-0---|
|-----------------|--------------------------------|
|
| H     +Q.    E     E  E  E  E  Q      q
|-----------------|--------------------------------|
|-----------------|--------------------------------|
|-5-----(5)---/9\-|--1-----x--1---------1----------|
|-----------------|--------------------------------|
|
| W                  E  E  E  E  E   E  E    E
|-----------------|-13-10----13-10-----13----------|
|-----------------|-------11--------11------11-----|
|-----------------|--------------------------------|
|-----------------|--------------------------------|
|-5---------------|--------------------------------|
|-----------------|--------------------------------|


  Bb5                           C5
   Q     E  Q.         E  S S   Q    E Q.     E E
|-----------------------------|-------------------|
|-----------------------------|-------------------|
|--3--------3-----------------|-5------5--------5-|
|--3--------3-----------------|-5------5--------5-|
|--1-----0--1----------0--0-1-|-3----0-3------0-3-|
|-----------------------------|-------------------|
|
|  E  E  E  E  +Q      Q        E E  E E  E E E E
|-----------------------------|-------------------|
|-----------------------------|-------------------|
|--1-----x--1--(1)------------|-3-3\--------------|
|-----------------------------|------0-0--1-1-2-3-|
|
|  E  E  E  E   E   E  E  E     W
|-13-10----13--10-----13------|-------------------|
|-------11---------11----11---|-------------------|
|-----------------------------|-------------------|
|-----------------------------|-------------------|
|-----------------------------|-------------------|
|-----------------------------|-------------------|


                                D5
  Q   S S S S S S S S S S S S   Q  E E +H
|-----------------------------|--------------------|
|-----6p5h6p5h6p5h6p5h6p5h6p5-|--------------------|
|-5---5-----------------------|-7----7-(7)---------|
|-5---7p5h7p5h7p5h7p5h7p5h7p5-|-7----7-(7)---------|
|-3---------------------------|-5----5-(5)---------|
|-----------------------------|--------------------|
| Q   H.
|
| E E E   E   E   E   E   E     q  q    E  S S q
|-----------------------------|------------7-7-----|
|-----------------------------|--------------------|
|-3-3-------------------------|-5--5----5------5---|
|-----0---0---1---1---3---5---|--------------------|
|
| W                             W
|-----------------------------|--------------------|
|-----------------------------|--------------------|
|-----------------------------|--------------------|
|-----------------------------|--------------------|
|-----------------------------|--------------------|
|-----------------------------|--------------------|


                            PM----------|
              |--3--|     |--3--|
  S S S S S S S S   S S S S S   S S S S S
|-----------------------------------------|
|-3h4p3---3-------------------------------|
|-------5---5-3h5p==3s2---2---------------|
|-----------------------5---5---3-5-3-2---|
|---------------------------------------5-|
|-----------------------------------------|
|
| q       e   S   S   e   S   S   S S S S
|-------------7---7-----------------------|
|-----------------------------------------|
|-5-------5-----------5-------------------|
|-------------------------0---0---2-0-3-0-|


  C5                                       Bb5          A5
                                                     |3-|
  Q    E H       E   +Q    E S S E E E E   H     Q  +E  Q
|------------------|---------------------|------------------|
|------------------|---------------------|------------------|
|-5------5-------5-|-(5)---------5---5---|-3-----3--(3)-----|
|-5------5-------5-|-(5)-----0-2-5---5---|-3-----3--(3)-2---|
|-3------3-------3-|-(3)-----------------|-1-----1--(1)-0---|
|------------------|---------------------|------------------|
|
|                                                    |3-|
| E E  E E E E E E    E  E E E   E E E E   q  q  q   E  Q
|------------------|---------------------|------------------|
|------------------|---------------------|------------------|
|-3-3\-------------|--3--3---------------|-1--1--1---1--0---|
|------0-0-1-1-2-3-|-------0-0---1-1-2-3-|------------------|


  A5
  +W
|-------------||
|-------------||
|-------------||
|-(2)---------||
|-(0)---------||
|-------------||
|
| +H     H
|-------------||
|--------7----||
|-(0)---------||
|-------------||


 Guitar Solo
  Dm
   |-----------6------------|       |--------6--------|       |-------6--------|       |-------6--------|
   T      +T    S  S  S  S  S      +S    S  S  S   S  S      +S    S  S  S  S  S      +S    S  S  S  S  S
|-----------------10-----------------------10------------------------10-----------------------10-------10--|
|--------------10----13p10--------------10----13p=10--------------10----13p10--------------10----13p10-----|
|-12b14==(12)r-------------12b14==(12)r--------------12b14==(12)r-------------12b14==(12)r-----------------|
|----------------------------------------------------------------------------------------------------------|
|----------------------------------------------------------------------------------------------------------|
|----------------------------------------------------------------------------------------------------------|
|
|  Q.                                          E              E          E             E          E
|----------------------------------------------------------------------------------------------------------|
|---------------------------------------------/3\----------------------------------------------------------|
|--5-------------------------------------------------------------------------------------------------------|
|-------------------------------------------------------------0----------1-------------3----------3--------|


  Bb
   |------6-------|  |------6-------|  |------6-------|  |------6-------|
   S  S  S  S  S  S  S  S  S  S  S  S  S  S  S  S  S  S  S  S  S  S  S  S
|-13p10----10-------------------------------------------------------------|
|-------13----13-10-13p10----10-------------------------------------------|
|-------------------------12----12-10-12p10----10----------------10-10-12-|
|-------------------------------------------12----12-10-12p10h12----------|
|-------------------------------------------------------------------------|
|-------------------------------------------------------------------------|
|
|  Q.                         E        E        E        E        E
|-------------------------------------------------------------------------|
|-------------------------------------------------------------------------|
|-------------------------------------------------------------------------|
|--6--------------------------6--------6--------1--------3--------5-------|


  C
   |------6-------|  |--------6--------|  |------6-------|  |------6-------|
   S  S  S  S  S  S  S  S  S  S  S  T  T  S  S  S  S  S  S  S  S  S  S  S  S
|----------------------------10-10-13p12-15p13p12-16p15p13-18p16p15-20p18p17-|
|-------------13-13-13p10-13-------------------------------------------------|
|-12p10-12S14----------------------------------------------------------------|
|----------------------------------------------------------------------------|
|----------------------------------------------------------------------------|
|----------------------------------------------------------------------------|
|
|  Q.                         E           E        E        E        E
|----------------------------------------------------------------------------|
|----------------------------------------------------------------------------|
|--3-------------------------------------------------------------------------|
|-----------------------------0-----------1--------3--------5--------3-------|


  Dm
                             ~~~~
                                  |--3---|
   E      +Q     S     +S   +Q    S   S  S  T  T  T  T
|-20b22==(20)r--20b22r(20)-(20)--20p=17h18-20p17h18p17-|
|------------------------------------------------------|
|------------------------------------------------------|
|------------------------------------------------------|
|------------------------------------------------------|
|------------------------------------------------------|
|
|  Q.            s      s    Q    Q
|------------------------------------------------------|
|------------------------------------------------------|
|--5-------------5------5----5----3\-------------------|
|------------------------------------------------------|


  Bb
   |--------6--------|                |--3--|  |--3--|              |------6-------|
   T  T  S  S  S  S  S  T    T  T  T  S  S  S  S  S  S  T  T  T  T  S  S  S  S  S  S
|-17h18p17----17-------17h==18p17----17------------------------------------------------|
|----------20----18-20------------20----20p17h18p17----17------------------------------|
|---------------------------------------------------19----19p17----17------------------|
|---------------------------------------------------------------20----20p19p17----17---|
|------------------------------------------------------------------------------20------|
|--------------------------------------------------------------------------------------|
|
|  Q                   +E             E        E        E           E        E
|--------------------------------------------------------------------------------------|
|--------------------------------------------------------------------------------------|
|--------------------------------------------------------------------------------------|
|--6-------------------(6)\-----------5--------6--------6-----------3--------1---------|


  E
   ~~~          ~~~~~~~
         |--6---|
   Q    +E.  S  E  +E  E  E      +E
|------------------------20b22==(20)-|
|------------------------------------|
|----------------------x-------------|
|-----------17---------x-------------|
|-19---(19)----19-(19)-x-------------|
|------------------------------------|
|
|  Q.        E      E  E  E       E
|------------------------------------|
|------------------------------------|
|------------------------------------|
|--0---------0------0--1--3-------4--|


  A
           |--------6--------|  |------6-------|  |------6-------|
   +Q     +S   S  S  S  S    S  S  S  S  S  S  S  S  S  S  S  S  S
|-(20)r==(20)p17h20p17h18p==17-18p17----17-------------------------|
|------------------------------------20----20p17-18p17h18p17h18p17-|
|------------------------------------------------------------------|
|------------------------------------------------------------------|
|------------------------------------------------------------------|
|------------------------------------------------------------------|
|
|   E  E   E         s    s     E        E        E        E
|------------------------------------------------------------------|
|------------------------------------------------------------------|
|------------------------------------------------------------------|
|---5--5---5---------5----5-----5--------5--------5--------5-------|


  A
                          ~~~~~~~~~~
   E      +E     E   +E  +Q     +E   +E
|---------------20--(20)(20)---(20)-(20)\-|
|-20b22==(20)r-(20)-(20)(20)---(20)-(20)\-|
|-----------------------------------------|
|-----------------------------------------|
|-----------------------------------------|
|-----------------------------------------|
|
|  E       E     E    E   E  E   E    E
|-----------------------------------------|
|-----------------------------------------|
|-------------------------------------3---|
|--5-------5-----5----3s==5--5---5--------|


  Dm
   |------6-------|  |-------6--------|  |------6-------|  |------6-------|
   S  S  S  S  S  S  S  S  S  S  S    S  S  S  S  S  S  S  S  S  S  S  S  S
|-13p10----10-------13p10----10---------13p10-10-10-------13p10-10-10--------|
|-------13----13p10-------13----13p==10-------------13p10-------------13p10--|
|----------------------------------------------------------------------------|
|----------------------------------------------------------------------------|
|----------------------------------------------------------------------------|
|----------------------------------------------------------------------------|
|
|  Q.                         s    s     E        E        E        E
|----------------------------------------------------------------------------|
|----------------------------------------------------------------------------|
|--5--------------------------5----5-----------------------------------------|
|----------------------------------------0--------1--------3--------5--------|


  Bb
   |------6-------|  |-------6-------|  |------6-------|  |------6-------|
   S  S  S  S  S  S  S  S  S  S   S  S  S  S  S  S  S  S  S  S  S  S  S  S
|-13p10----10-------13p10----10--------13p10----10-------13p10----10-------|
|-------13----13p10-------13-----13p10-------13----13p10-------13----13p10-|
|--------------------------------------------------------------------------|
|--------------------------------------------------------------------------|
|--------------------------------------------------------------------------|
|--------------------------------------------------------------------------|
|
|  Q.                         E         E        E        E        E
|--------------------------------------------------------------------------|
|--------------------------------------------------------------------------|
|--------------------------------------------------------------------------|
|--6--------------------------6\--------0--------1--------3--------5-------|


  C
   |------6-------|  |------6------|  |-----6-----| |----6----|
   S  S  S  S  S  S  S  S  S  S  S S  S S  S S S  S S S S S S S
|-13p10----10-------------------------------------------------5-|
|-------13----13p10-11p10----10---------------------------5h6---|
|-------------------------12----12p9-10-9\-7-9-7\-5-7p5---------|
|-------------------------------------------------------5-------|
|---------------------------------------------------------------|
|---------------------------------------------------------------|
|
|  Q.                         E       E      E      E     E
|---------------------------------------------------------------|
|---------------------------------------------------------------|
|--3------------------------------------------------------------|
|-----------------------------0-------1------3------5-----3-----|


  Dm                             Bb
                                   ~~~~~~~~
  Q     +E.   +S   Q   +E. +S    S E.  E   S S S S S S S S S S
|------------------8-----------|-------------------------------|
|-8b9===(8)---(8)-(8)--(8)r(8)-|-6-------------6p5-------------|
|------------------------------|---7---7---7p5-----7p5---------|
|------------------------------|-----------------------8p7p5---|
|------------------------------|-----------------------------8-|
|------------------------------|-------------------------------|
|
| Q.        E      Q    Q        Q    +E   E   E   E   E   E
|------------------------------|-------------------------------|
|------------------------------|-------------------------------|
|-5---------5------5----3\-----|-------------------------------|
|------------------------------|-6----(6)\-6---6---6---3---1---|


  E                          A                               A
                                                             \2
                   ~~~~~~~~~~~~~~~~~~~~
                                          |------6-------|
  S  S S S S S S S Q   Q     Q   Q   Q    S  S  S  S  S  S   W
|--------------------------|-------------------------------|-------||
|--------------------------|-------------------------------|-------||
|--------------------------|-------------------------------|-------||
|-5------------5-----------|-------------------------------|-------||
|----8p7p5-7h8---8-7---5---|-4---5---7---12h13p12-13p12h13-|-0-----||
|--------------------------|-------------------------------|-------||
|
| Q.           E   E E E E   E E E E E E  E        E         W
|--------------------------|-------------------------------|-------||
|--------------------------|-------------------------------|-------||
|--------------------------|-------------------------------|-------||
|-0------------0---0-1-3-0-|-5-5-5-5-5-5--5--------5-------|-5-----||


 Verse III
  D5              D5
        |-3--|
  H    +Q  Q Q    H    +E   Q      +E
|---------------|-----------------------|
|---------------|-----------------------|
|-7----(7)------|-7----(7)--------------|
|-7----(7)------|-7----(7)--------------|
|-5----(5)-0----|-5----(5)--------------|
|------------1--|----------18-----(18)\-|
|
|       |-3--|
| H     Q  Q Q    H    +Q      Q
|---------------|-----------------------|
|---------------|-----------------------|
|-5----/9\-0----|-5----(5)----13\-------|
|------------1--|-----------------------|
|
| Gtr II
| H     H         W
|---------------|-----------------------|
|---------------|-----------------------|
|---------------|-----------------------|
|---------------|-----------------------|
|-5-------------|-5---------------------|
|---------------|-----------------------|


  Bb5                            Bb5
            ~~        PM-----|                   ~~~
   Q     E  Q    +E   S S  S S    Q     E  Q     Q.
|------------------------------|----------------------------|
|------------------------------|----------------------------|
|--3--------3----(3)-----------|--3--------3----------------|
|--3--------3----(3)-----------|--3--------3----------------|
|--1-----0--1----(1)--1-3--1-0-|--1--------1-----3----------|
|------------------------------|----------------------------|
|
|  E  E  E  E  H                  E  E  E  Q     Q.
|------------------------------|----------------------------|
|------------------------------|----------------------------|
|--1-----x--1------------------|--1-----0--1-----3----------|
|------------------------------|----------------------------|
|
|  E  E  E  E  E  E   E    E      E  E  E  E  E  E   E  E
|-13-10----13-10-----13--------|-13-10----13-10-----13------|
|-------11-------11-------11---|-------11-------11-----11---|
|------------------------------|----------------------------|
|------------------------------|----------------------------|
|------------------------------|----------------------------|
|------------------------------|----------------------------|


  D5
                            Gtr IV
                            TPTPTPTPTPTPTPTPTP TPTPTP
        |--3---|
  H    +Q  Q E.S   H    +E  T T T T T T T T T  T T T
|----------------|-----------------------------------|
|----------------|----------xsxsxsxsxsxsxsxsxs=xsxsx-|
|-7----(7)-------|-7----(7)--------------------------|
|-7----(7)-------|-7----(7)--------------------------|
|-5----(5)-0-----|-5----(5)--------------------------|
|------------1p0-|-----------------------------------|
|
|       |-3--|
| H    +Q  Q Q     H    +Q.                 E
|----------------|-----------------------------------|
|----------------|-----------------------------------|
|-5----(5)-0-----|-5----(5)-----------------5\-------|
|------------1---|-----------------------------------|
|
| H     H          W
|----------------|-----------------------------------|
|----------------|-----------------------------------|
|----------------|-----------------------------------|
|----------------|-----------------------------------|
|-5--------------|-5---------------------------------|
|----------------|-----------------------------------|

[ Tab from: http://www.guitartabs.cc/tabs/o/ozzy_osbourne/mr_crowley_tab_ver_4.html ]
  Bb5                            Bb5
  Gtr III
            ~~        PM-----|
   Q     E  Q    +E   S S  S S    Q     E  E +H
|------------------------------|---------------------------|
|------------------------------|---------------------------|
|--3--------3----(3)-----------|--3--------3-(3)-----------|
|--3--------3----(3)-----------|--3--------3-(3)-----------|
|--1-----0--1----(1)--1-3--1-0-|--1-----0--1-(1)-----------|
|------------------------------|---------------------------|
|
|  E  E  E  E  H                  E  E  E  E +H
|------------------------------|---------------------------|
|------------------------------|---------------------------|
|--1-----x--1------------------|--1-----x--1-(1)-----------|
|------------------------------|---------------------------|
|
|  E  E  E  E  E  E   E    E      E  E  E  E  E   E  E  E
|-13-10----13-10-----13--------|-13-10----13-10-----13-----|
|-------11-------11-------11---|-------11--------11----11--|
|------------------------------|---------------------------|
|------------------------------|---------------------------|
|------------------------------|---------------------------|
|------------------------------|---------------------------|


  C5
  Q    +E  Q.     E E   +H        S  S  S  S  S  S  S  S
|---------------------|-----------------------------------|
|---------------------|-----------6p=5h=6p=5h=6p=5h=6p=5--|
|-5----(5)-5--------5-|-(5)-------5-(5)(5)(5)(5)(5)(5)(5)-|
|-5----(5)-5--------5-|-(5)-------7p=5h=7p=5h=7p=5h=7p=5--|
|-3----(3)-3------0-3-|-(3)-------------------------------|
|---------------------|-----------------------------------|
|
| E E   E  E  E E E E    E  E E E E     E     E     E
|---------------------|-----------------------------------|
|---------------------|-----------------------------------|
|-3-3\----------------|--3--3-----------------------------|
|-------0--0--1-1-2-3-|-------0-0-1-----1-----3-----5-----|


  D5
                            ~~~~~~~~~
  H.           S  E.       +E   +E      S  S  S  T  T  S  S  S  S  S  S  S  S
|-----------------------|--------------10---------------------------------------|
|----------------13b15==|=(13)-(13)r------13-11-10h12p10----10------------------|
|-7---------------------|--------------------------------13----13p10h13p10------|
|-7---------------------|--------------------------------------------------12---|
|-5---------------------|-------------------------------------------------------|
|-----------------------|-------------------------------------------------------|
|
| q   q  e S S q            e    S   S  q              Q           Q
|----------7-7----------|-------------------------------------------------------|
|-----------------------|-------------------------------------------------------|
|-5---5--5-----5--------|---5----5---5--5--------------7-----------5------------|
|-----------------------|-------------------------------------------------------|


  C5                                            Bb5           A5
  Q    E Q.     E E   +Q.      S S Q   E +E     H.        +E  E   +W
|-------------------|-------------------------|-----------------|-------------||
|-------------------|--------------5---5-(5)\-|-----------------|-------------||
|-5------5--------5-|-(5)----------5---5-(5)\-|-3---------(3)---|-------------||
|-5------5--------5-|-(5)----------5---5-(5)\-|-3---------(3)-2-|-(2)---------||
|-3----0-3------0-3-|-(3)------5h7------------|-1---------(1)-0-|-(0)---------||
|-------------------|-------------------------|-----------------|-------------||
|
| E E  E E  E E E E    E  E  E E   E E E  E     q   q  q   q       H     H
|-------------------|-------------------------|-----------------|-------------||
|-------------------|-------------------------|-----------------|--------7----||
|-3-3\--------------|--3--3\------------------|-1---1--1---1----|--0----------||
|------0-0--1-1-2-3-|--------0-0---1-1-3--5---|-----------------|-------------||


 Interlude
  Dm                      Bb
  Gtr V
  Q   +S  S S S E E E E   Q.   E Q    Q
|---------------1p0-----|------5-3---(3)---|
|-3---(3)---3-------3p1-|------6-5----5----|
|-2---(2)-2---2---------|-3----------------|
|-0---(0)---------------|-3----------------|
|-----------------------|------------------|
|-----------------------|------------------|
|
| Q.        S S E E E E   Q.   E E E  E  E
|-----------------------|------------------|
|-----------------------|------------------|
|-5---------5-5-5-------|------------------|
|-----------------1-3-3-|-6----6-6-1--3--5-|


  C5                       Dm
  Q   +S  S S S E E  E E   Q.   E Q  E  E
|------------------------|----------------|
|------------------------|------8-6-------|
|-5---(5)---5h7-9p7------|-----------7----|
|-5---(5)-5---------10p8-|-7------------7-|
|------------------------|----------------|
|------------------------|----------------|
|
| Q.        E   E E  E E   Q.   E Q  Q
|------------------------|----------------|
|------------------------|----------------|
|-3--------------------3-|-5----5-5--3\---|
|-----------0---1-3--5---|----------------|


  Bb                        Gm7
  Q.       S S  E E E S S    Q.    E   H
|-------------------------|-!3------------------|
|-3--------3h4-/6-4-3-----|-!5-----6---5--------|
|-3--------3h5-/7-5-3-3---|-!3-----3--(3)-------|
|-----------------------3-|-!5----(5)-(5)-------|
|-------------------------|---------------------|
|-------------------------|---------------------|
|
| Q   +E   E    E E E E      Q.    E   E  E E E
|-------------------------|---------------------|
|-------------------------|---------------------|
|-------------------------|---------------------|
|-6---(6)\-6----6-6-3-1---|--0-----0---0--0-2-3-|


  Q   Q   Q   Q     Q   Q   Q   Q
|-----------------|-------------------|
|-2---3---5---6---|-5---3---2---------|
|-----------------|-------------2-----|
|-----------------|-------------------|
|-----------------|-------------------|
|-----------------|-------------------|
|
| E E E E E E E E   E E E E E E E E
|-----------------|-------------------|
|-----------------|-------------------|
|-----------------|---------------3---|
|-5-5-5-5-5-5-5-5-|-5-5-5-5-5-0-5-----|


  Dm                   Bb
  Q  +E  S S E E E E   Q.   E Q   A E S S
|----------0-1p0-----|------5-3-----------|
|--------3-------3p1-|------6-5-----------|
|-2--(2)-------------|-3------------------|
|-0--(0)-------------|-3------------------|
|--------------------|------------3s5-5h7-|
|--------------------|--------------------|
|
| H          E E E E   Q.   E E E   E E
|--------------------|--------------------|
|--------------------|--------------------|
|-5----------5-5-3-3-|--------------------|
|--------------------|-6----6-6-1---3-5---|


  C5                      Dm
  Q   +E   S  S E E E E   Q.   E Q  Q
|-----------------------|---------------|
|----------5h=6-8p6-5-5-|-6----8-6------|
|-5---(5)-------------5-|-7---------7---|
|-5---(5)---------------|-7---------7---|
|-----------------------|---------------|
|-----------------------|---------------|
|
| Q.      +E    E E E E   Q.   E Q  Q
|-----------------------|---------------|
|-----------------------|---------------|
|-3-------(3)---------3-|-5----5-5--3\--|
|---------------1-3-5---|---------------|


  Bb                      Gm7
  Q  +S   S S S E E E E   Q.    E   H
|-----------------------|-3-----3------------|
|-----------3h4-6-4-3---|-5---------5--------|
|-3--(3)--3-3h5-7-5-3-3-|-3----(3)-(3)-------|
|-3--(3)----------------|-5----(5)-(5)-------|
|-----------------------|--------------------|
|-----------------------|--------------------|
|
| Q  +E     E   E E E E   Q.   +E   E  E E E
|-----------------------|--------------------|
|-----------------------|--------------------|
|-----------------------|--------------------|
|-6--(6)\---6---6-6-3-1-|-0----(0)--0--0-2-3-|


  A5
  Gtr III
  W                   +W
|-------------------|---------------------||
|-------------------|---------------------||
|-2-----------------|-(2)-----------------||
|-2-----------------|-(2)-----------------||
|-0-----------------|-(0)-----------------||
|-------------------|---------------------||
|
| E E E E E E E S S    E  E E S S E E E E
|-------------------|---------------------||
|---------------7-7-|---------7-7---------||
|-------------------|---------------------||
|-5-5-5-5-5-5-5-----|--5--5-5-----5-5-8-5-||


 Guitar Solo Out
  Dm
   |-------6--------|  |------6-------|  |-------6--------|  |--------6---------|
   S  S  S  S  S    S  S  S  S  S  S  S  S  S  S  S  S    S  S  S    S  S  S    S
|-17p13----17p13------17p13----17p13----17p13----17p13------17p13------17p13-------|
|-------15---------15-------15-------15-------15---------15---------15---------15--|
|----------------------------------------------------------------------------------|
|----------------------------------------------------------------------------------|
|----------------------------------------------------------------------------------|
|----------------------------------------------------------------------------------|
|
|  E        s    s     Q                 E        s    s     S    S     S    S
|----------------------------------------------------------------------------------|
|----------------------------------------------------------------------------------|
|--5--------5----5-----5-----------------5--------5----5-----5----5----------------|
|-----------------------------------------------------------------------0----0-----|


  Gm7
   |-------6--------|  |------6-------|  |-------6--------|  |--------6---------|
   S  S  S  S  S    S  S  S  S  S  S  S  S  S  S  S  S    S  S  S    S  S  S    S
|-18p13----18p13------18p13----18p13----18p13----18p13------18p13------18p13-------|
|-------15---------15-------15-------15-------15---------15---------15---------15--|
|----------------------------------------------------------------------------------|
|----------------------------------------------------------------------------------|
|----------------------------------------------------------------------------------|
|----------------------------------------------------------------------------------|
|
|  E        s    s     Q                 E        s    s     S    S     S    S
|----------------------------------------------------------------------------------|
|----------------------------------------------------------------------------------|
|-----------------------------------------------------------------------3----------|
|--3--------3----3-----3-----------------3--------3----3-----3----5----------5-----|


  C5
   |-------6--------|  |-------6--------|  |-------6--------|  |--------6---------|
   S  S  S  S  S    S  S  S  S  S  S    S  S  S  S  S  S    S  S  S    S  S  S    S
|-15p12----15p12------15p12----15p12------15p12----15p12------15p12------15p12------|
|-------13---------13-------13---------13-------13---------13---------13---------13-|
|-----------------------------------------------------------------------------------|
|-----------------------------------------------------------------------------------|
|-----------------------------------------------------------------------------------|
|-----------------------------------------------------------------------------------|
|
|  E        s    s     E        s    s     E        s    s     S    S     S    S
|-----------------------------------------------------------------------------------|
|-----------------------------------------------------------------------------------|
|--3--------3----3-----3--------3----3-----3--------3----3-----0----0---------------|
|-------------------------------------------------------------------------3----3----|


  F
   |-------6--------|  |------6-------|  |-------6--------|  |-------6--------|
   S  S  S  S  S    S  S  S  S  S  S  S  S  S  S  S  S    S  S  S  S  S  S    S
|-17p13----17p13------17p13----17p13----17p13----17p13------17p13----17p13------|
|-------15---------15-------15-------15-------15---------15-------15---------15-|
|-------------------------------------------------------------------------------|
|-------------------------------------------------------------------------------|
|-------------------------------------------------------------------------------|
|-------------------------------------------------------------------------------|
|
|  E        s    s     Q                 E        s    s     E        S    S
|-------------------------------------------------------------------------------|
|-------------------------------------------------------------------------------|
|-------------------------------------------------------------------------------|
|--1--------1----1-----1-----------------1--------1----1-----1--------1----1----|


  Bb                                            E
                                                 TP     TP     TP     TP
   S  S  S  S  S  S  S  S  a  E  E    E   S S    Q      Q      Q      Q
|-----------------------------------------0-0-|-15-----12------------12-------|
|-15h16p15h16-15h16p15h16-16s18-16---15-------|---------------11--------------|
|-15h17p15h17-15h17p15h17-17s19-17---15-------|-------------------------------|
|---------------------------------------------|-------------------------------|
|---------------------------------------------|-------------------------------|
|---------------------------------------------|-------------------------------|
|
|  E     s  s  S  e     S     E  s s  S s E      E s s  E s s  E s s  s s s s
|---------------------------------------------|-------------------------------|
|---------------------------------------------|-------------------------------|
|---------------------------------------------|-------------------------------|
|--6-----6--6--6--6-----6-----6--6-6--6-6-3---|--0-0-0--0-0-0--0-0-0--0-0-3-3-|


  A
  TP   TP TP TP
                  |------6------|
  Q    E  E  Q    S  S  S      +E.
|-9---10-12-13---------20b22==(20)-|
|----------------20p17-------------|
|----------------------------------|
|----------------------------------|
|----------------------------------|
|----------------------------------|
|
| E E  E  E  E E  E             E
|----------------------------------|
|----------------------------------|
|----------------------------------|
|-5-5--5--5--5-5--5-------------5--|


                             ~~~~~~~~~
    |---6----|
   +E.  +E   S  S      +S    E    +Q       +E   S S
|-(20)r(20)p17--------------20---(20)-----(20)\-0-0-|
|--------------20b22==(20)r-20---(20)-----(20)\-----|
|---------------------------------------------------|
|---------------------------------------------------|
|---------------------------------------------------|
|---------------------------------------------------|
|
|   E    E      E            S S   E  S S   E   E
|---------------------------------------------------|
|---------------------------------------------------|
|-----------------------------------------------3---|
|---5----5------5------------5-5---5--5-5---5-------|


  Dm
  |------6-------|  |-------6--------| |-------6--------| |------6------|
  S  S S  S S    S  S  S  S  S  S    S S  S   S  S S    S S S   S S S   S
|-9h10p9h10p9h==10--------------------------------------------------------|
|------------------10h11p10h11p10h==11------------------------------------|
|--------------------------------------9h10p==9h10p9h==10-6h7p==6h7p6h==7-|
|-------------------------------------------------------------------------|
|-------------------------------------------------------------------------|
|-------------------------------------------------------------------------|
|
| E       s   s     E        s    s    s    s    S   S    S   S   S   S
|-------------------------------------------------------------------------|
|-------------------------------------------------------------------------|
|-5-------5---5-----5--------5----5----5----5----5---5--------------------|
|---------------------------------------------------------0---0---2---2---|


  Gm7
                          ~~~~~~~~~~~~~~~~
  S  S  S  S  S  S  S  S  Q          +E     S S
|------------10-13p12p10--------------------0-0-|
|------10h11-------------13b15======(13)r-------|
|-9s10------------------------------------------|
|-----------------------------------------------|
|-----------------------------------------------|
|-----------------------------------------------|
|
| E     s  s  E     s  s  E     s s   S   S S S
|-----------------------------------------------|
|-----------------------------------------------|
|-------------------------------------------3---|
|-3-----3--3--3-----3--3--3-----3-3---3---5---5-|


  C
  S T T S S T T S S S S S T T S S S S S
|-5-5h6-8p5-6p5---5---------------------|
|---------------8---8-6p5-6p5---5-------|
|-----------------------------7---7p5---|
|-------------------------------------8-|
|---------------------------------------|
|---------------------------------------|
|
| E     s s E     s s E   s   s S S S S
|---------------------------------------|
|---------------------------------------|
|-3-----3-3-3-----3-3-3---3---3-0-0-----|
|-----------------------------------3-3-|


  F
                  ~
  S S S S S S S S Q     E +E
|--------------------------------|
|--------------------------------|
|-5------------------------------|
|---8-7-5-7-5--------------------|
|-------------7-5-8--------------|
|-----------------------8-(8)\---|
|
| E   s s E   s s E s s E  S   S
|--------------------------------|
|--------------------------------|
|--------------------------------|
|-1---1-1-1---1-1-1-1-1-1--1---1-|


  Bb
  |-----6-----| |------6------| |-----6-----|
  S S S S S   S S S   S S S   S S S S S S   S T T S S S
|---------------------------------------------5h6-8-6p5---|
|-------------------------------------5h6h==8-------------|
|-----------------------2h3h==5-3h5h7---------------------|
|---------------2h3h==5-----------------------------------|
|-------1h3h==5-------------------------------------------|
|-1h3h5---------------------------------------------------|
|
| E     s   s   S   e       S   E     s   s   S   s E
|---------------------------------------------------------|
|---------------------------------------------------------|
|---------------------------------------------------------|
|-6-----6---6---6---6-------6---6-----6---6---6---6-3-----|


  E
                   ~~
  S S S S S S S S  Q     E   E
|--------------------------------|
|-8-6p5---5----------------------|
|-------7---7-6-7-/9-----7p==0---|
|--------------------------------|
|--------------------------------|
|--------------------------------|
|
| E   s s E   s s  E s s s s s s
|--------------------------------|
|--------------------------------|
|--------------------------------|
|-0---0-0-0---0-0--0-0-0-0-0-3-3-|


  A
  |-----6-----| |-----5-----|  |-------5-------|  |--------6---------|
  S S S S S   S S S   S   S S  S S    S   S    S  S  S    S  S  S    S
|------------------------------------------------------------------------|
|------------------------------------------------------------------------|
|-6h7p6h7p6s==7-9p7h==9p==7h9S10p9h==10p==9h==10S12p10h==12p10h12p==10S==|
|------------------------------------------------------------------------|
|------------------------------------------------------------------------|
|------------------------------------------------------------------------|
|
| e     S   e       S   e      S   S    S   S     S    S     S    S
|------------------------------------------------------------------------|
|------------------------------------------------------------------------|
|------------------------------------------------------------------------|
|-5---------5-----------5----------5----5---5-----5----5-----5----5------|


  A
   |-------6--------|  |-------6--------|  |--------6---------|  |--------6---------|
   S  S  S  S  S    S  S  S    S  S  S  S  S  S    S  S  S    S  S  S    S  S  S    S
|-------------------------------------------------------------------------------------|
|-------------------------------------------------------------------------------------|
|-14p12h14p12h14S==15p14h15p==14h15p14h15S17p15h==17p15h17p==15S19p17h==19p17h19p==17-|
|-------------------------------------------------------------------------------------|
|-------------------------------------------------------------------------------------|
|-------------------------------------------------------------------------------------|
|
|  e        S    e          S     e        S    S     S    S     S    S     S    S
|-------------------------------------------------------------------------------------|
|-------------------------------------------------------------------------------------|
|---------------------------------------------------------------------------0----3----|
|--5-------------5----------------5-------------5-----5----5-----5----5---------------|


  Dm
            ~~
   E.    S  H              E    S  S
|--------------------------------------|
|-17----18----------------17---18s19---|
|----------19--------------------------|
|--------------------------------------|
|--------------------------------------|
|--------------------------------------|
|
|  E  s  s  E s s S S s s  S S  S  S
|--------------------------------------|
|-------------------7------------------|
|--5--5--5--5-5-0-5---5-5--------------|
|--------------------------0-0--0--1---|


  Gm7                                          C
                   ~~
   E      +S    S  H              S  S  S  S    S  S  S  S  S  S  S  S  S  S  S  S  S  S  S  S
|--------------17----------------17-18-20p17-|-18----17----------------------------------------|
|-20b22==(20)r----20-------------------------|----20----18-20p17-18----17----------------------|
|--------------------------------------------|----------------------19----19p17----17----------|
|--------------------------------------------|----------------------------------20----20p19p17-|
|--------------------------------------------|-------------------------------------------------|
|--------------------------------------------|-------------------------------------------------|
|
|  E       s    s  E s s S s s s  S  S  S  S    E     s  s  E     s  s  S  S  s  s  S  S  S  S
|--------------------------------------------|-------------------------------------------------|
|--------------------------------------------|-----------------------------5-------------------|
|--------------------------5------------3----|--3-----3--3--3-----3--3--3-----3--3-------------|
|--3-------3----3--3-3-3-3---3-3--3--5-----5-|--------------------------------------0--0--0--0-|


  F
                        ~~~~~~~
                                       |---3---|
   S  S  S  S  S  S  S  S  +Q.         S  S    S
|--------------------------------------x-18---17--|
|--------------------------------------x----------|
|-------17----------------------------------------|
|-19h20----20p19p17-------------------------------|
|-------------------19-20-(20)--------------------|
|-------------------------------------------------|
|
|  E     s  s  E     s  s   S  S s s E S    S
|-------------------------------------------------|
|-------------------------------------------------|
|------------------------------3------------------|
|--1-----1--1--1-----1--1---1----1-1-1-1----1-----|


  Bb
   |----------7----------|
   S  S  S  S    S  S    S  +X    X  T  T  T  T  T  T  T  X  T  T  T  X  T  T  T  X  X  +X   T  X  +S   T T T T
|-21-19-18S17---20-18---17-(17)\-16-19-17-16S15-18-16-15S14-17-15-14S13-16-14-13S12-15-(15)-13-12-(12)\-5h6p5---|
|-------------------------------------------------------------------------------------------------------------8-|
|---------------------------------------------------------------------------------------------------------------|
|---------------------------------------------------------------------------------------------------------------|
|---------------------------------------------------------------------------------------------------------------|
|---------------------------------------------------------------------------------------------------------------|
|
|  E          s       s      E                s     s     E              s     s         S          S   E
|---------------------------------------------------------------------------------------------------------------|
|---------------------------------------------------------------------------------------------------------------|
|---------------------------------------------------------------------------------------------------------------|
|--6----------6-------6------6----------------6-----6-----6--------------6-----6---------6----------6---3-------|


  E                                         A
                                                 \0.5/        \0.5___/
                          ~~~~~~~~~~
  |-----6-----|
  S S S S S   S S S S S a Q     +S  S E     +E  +Q.          +E     +E  +E    +E
|-5-----------------------------------8---|-(8)-(8)----------(8)----(8)-(8)---(8)-|
|---8p5h6p5-----5-------------------------|---------------------------------------|
|-------------7---7-6-7-7s9-----(9)-x-----|---------------------------------------|
|-----------------------------------------|---------------------------------------|
|-----------------------------------------|---------------------------------------|
|-----------------------------------------|---------------------------------------|
|
| E     s   s   E   s s   E s s  S  S S S    E   E     s s E  E      E   s  s  E
|-----------------------------------------|---------------------------------------|
|-----------------------------------------|------------7-7---------------7--7-----|
|-----------------------------------------|---------------------------------------|
|-0-----0---0---0---0-0---0-0-0--1--1-3-3-|--5---5---------5--5------5---------5--|


                                 Gtr IV
   ~~~~~~~~~~~~~~                 TPTP TP TP TP TP TPTP
  +Q          H                   T T  T  T  T  T  T T
|-(8)-----------------------------------------------------|
|-----------/15-------------------xsxs=xs=xs=xs=xs=xsx----|
|---------------------------------xsxs=xs=xs=xs=xs=xsx----|
|---------------------------------xsxs=xs=xs=xs=xs=xsx----|
|---------------------------------------------------------|
|---------------------------------------------------------|
|
|  S  S S S   S S S S S  S  S  S  S    T  T  T  T  S
|---------------------------------------------------------|
|--7--7-7-7---7s9-9-9-9s10-10-10-10s==14-14-14-14-14------|
|---------------------------------------------------------|
|---------------------------------------------------------|


  Dm                              Gm7
  Gtr III
                    PM--|   PM|   ~~~~~~~~~~
  H           +E    S S S S S S   Q     +E.   S S S S S S S S S
|-------------------------------|-------------------------------|
|-------------------------------|-------------------------------|
|-------------------------------|-------------------------------|
|-------------------------3-----|---------------6p5p3-------3-5-|
|-5-----------(5)---5-3-5---5-3-|-5-----(5)---5-------5-3h5-----|
|-------------------------------|-------------------------------|
|
| E s s E s s  S  S s s S S S S   E s s  E  s s S s s s S S S S
|-------------------------------|-------------------------------|
|-----------------7-------------|-------------------------------|
|-5-5-5-5-5-0--5----5-5---------|-----------------5---------3---|
|-----------------------0-0-0-1-|-3-3-3--3--3-3-3---3-3-3-5---5-|


  C
                                           |--------6---------|
  a S S T  T  S T  T  S  S  S  S  S  S  S  S  S    S  S  S    S
|--------------------------------------13-15h16p==15p13-15h==16-|
|-----------------------------10h13s15--------------------------|
|-----5-7p(5)-7-9p(7)-9-10s12-----------------------------------|
|-5s7-----------------------------------------------------------|
|---------------------------------------------------------------|
|---------------------------------------------------------------|
|
|   E   s     s E        s  s  S  S  s  s  S    S     S    S
|---------------------------------------------------------------|
|---------------------------------5-----------------------------|
|---3---3-----3-3--------3--3--3-----3--3-----------------------|
|------------------------------------------0----0-----0----0----|


  F
   |-------6--------|  |-------6--------|  |--------6---------|  |------6-------|
   S  S  S  S  S    S  S  S  S  S  S    S  S  S    S  S  S    S  E   E     S    S
|-15-13-15-16-15---13-15-16-15-13------15-16-15---13----15---16-15\----------------|
|---------------------------------15-----------------15-------------13\------------|
|-------------------------------------------------------------------------10---10--|
|----------------------------------------------------------------------------------|
|----------------------------------------------------------------------------------|
|----------------------------------------------------------------------------------|
|
|  E        s    s     E        s    s     S    S     s    s     E      S    S
|----------------------------------------------------------------------------------|
|----------------------------------------------------------------------------------|
|-----------------------------------------------3----------------------------------|
|--1--------1----1-----1--------1----1-----1----------1----1-----1------1----1-----|


  Bb
               PM--|               PM--|                 PM--|
   |-------6--------|  |-------6--------|  |--------6---------|  |------6------|
   S  S  S  S  S    S  S  S  S  S  S    S  S  S    S  S  S    S  S  S    S  S  E
|------------------------------------------------------------------------------------|
|------------------------------------------------------------------------------------|
|-13p10-12p10---------13p10-12p10------10-13p10---12p10---------13p10---12p10-12b14==|
|-------------12---10-------------12--------------------12---10----------------------|
|------------------------------------------------------------------------------------|
|------------------------------------------------------------------------------------|
|
|  E        s    s     E        s    s     S    S     s    s     S    S     E
|------------------------------------------------------------------------------------|
|------------------------------------------------------------------------------------|
|-----------------------------------------------8------------------------------------|
|--6--------6----6-----6--------6----6-----6----------6----6-----6----6-----3--------|


  E
                                ~~~~~~~~~~~~~~~~~~~~~~~~
                  |----3-----|  |--------6--------|
   +Q        E   +S   +S     S  S  +S   +E.      +S   E    +E
|----------------------------------------------------------------|
|-----------13---------------------------------------------------|
|-(12)-----(12)-(12)r(12)p==10-12-(12)-(12)-----(12)-12---(12)\--|
|----------------------------------------------------------------|
|----------------------------------------------------------------|
|----------------------------------------------------------------|
|
|   E  s s   E    s       s     E           S S       S S   E
|----------------------------------------------------------------|
|-----------------------------------------------------9----------|
|-------------------------------------------5h7---------7---7----|
|---0--0-0---0----0-------0-----0--------------------------------|


                          F5
  Q  Q  Q  Q    W               Q    H           +Q
|-------------|--------------|------13----------(13)-------:
|-------------|--------------|-----------------------------:
|-------------|--------------|-----------------------------:
|-7--5--3-----|--------------|-----------------------------:
|----------5--|-3---------3--|-(3)-------------------------:
|-------------|----5--4-3-1--|-(1)-------------------------:
|               Q  Q  E E Q    +W
|
| Q  Q  Q  Q    Q  Q  E E Q    +H       S S S S   S  S S S
|-2-----------|--------------|-----------------------------:
|----5--3-----|--------------|-----------------------------:
|----------5--|-3------------|-----------------------------:
|-------------|----5--4-3-1--|-(1)------1-1-1-1---1--1-1-1-:


    ~~~~
   +W
|-(13)-------------------------------:
|------------------------------------:
|------------------------------------:
|------------------------------------:
|------------------------------------:
|------------------------------------:
|
|   S  S S S S S S S S S S S S S S S
|------------------------------------:
|------------------------------------:
|------------------------------------:
|---1--1-1-1-1-1-1-1-1-1-1-1-1-1-1-1-:


                                            D5
          Gtr IV                            Gtr III
    ~~~~  TPTPTPTPTPTPTPTPTPTPTPTPTPTPTPTP
                                                                  |---------6---------|
   +H     T T T T T T T T T T T T T T T T   H.                    S   S    S  S  S    S
|-(13)------------------------------------:---------------------------------------------:
|---------xsxsxsxsxsxsxsxsxsxsxsxsxsxsxsx-:-3-------------------<12>--------------------:
|---------xsxsxsxsxsxsxsxsxsxsxsxsxsxsxsx-:-2-------------------<12>-17---19p17h19p==17h:
|-----------------------------------------:-0-------------------------------------------:
|-----------------------------------------:---------------------------------------------:
|-----------------------------------------:---------------------------------------------:
|
|  +W                                       Q   S S S S S S S S   S     S     S    S
|-----------------------------------------:-----7-7-7-7-7-7-7-7---7-----7-----7----7----:
|-----------------------------------------:---------------------------------------------:
|-----------------------------------------:-5-------------------------------------------:
|--(1)------------------------------------:---------------------------------------------:


 2/4
   \1                    /                \1____
   |--------6---------|  |-------6--------|
   S  S    S  S  S    S  S  S    S  S S   S
|----------------------------------------------|
|----------------------------------------------|
|-19p17h==19p17h19p==17h19p17h==19p17-xp==0----|
|----------------------------------------------|
|----------------------------------------------|
|----------------------------------------------|
|
|  S    S     S    S     S    S     S   S
|--7----7-----7----7-----7----7-----7---7------|
|----------------------------------------------|
|----------------------------------------------|
|----------------------------------------------|


                         5/4
         /
  +E    +E    +E.     S    H      +Q.   E  E   +E     E Q.   H.
|-----------------------:-10-----(10)---------------:--------------*|
|-----------------------:---------------------------:--------------*|
|-(0)---(0)---(0)-----7-:-(7)-----(7)p==0-----------:-0------------*|
|-----------------------:---------------------------:-0------------*|
|-----------------------:-----------------17--(17)\-:-x------------*|
|-----------------------:---------------------------:-x------------*|
|
|  S  S  S  S  S  S S S    W              +Q          E Q.   H.
|--7--7--7--7--7--7-7-7-:--7--------------(7)-------:--------------*|
|-----------------------:---------------------------:--------------*|
|-----------------------:---------------------------:-5------------*|
|-----------------------:---------------------------:--------------*|
Comments